U2 - New Year's Day, аккорды

Прокрутка
Тональность
Шрифт
100
Piano part tabbed out for guitar: 
e--------------10--12-----8--10--7--------| 
A----------10-----------------------------| 
G-----------------------------------------|  Repeat about 3 times 
D-----------------------------------------| 
B--12-------------------------------------| 
E-----------------------------------------| 
 
e--8-8-7--7--7--7-8-10--12-10-8--10-8--7-8-5--8-7-----------------| 
A-----------------------------------------------------------------| 
G-----------------------------------------------------------------| 
D-----------------------------------------------------------------| 
B-----------------------------------------------------------------| 
E-----------------------------------------------------------------| 
 
Bass line  
Main Riff 
G|---------------------------------------------------------------| 
D|-------10---------------2--------------5--------------5--------| 
A|-12-12----12--12-12/3-3---3--3-3/7-7-7---7--7-7-0-7-7---7--7-7| 
E|---------------------------------------------------------------| 
 
Variation (play at 00:18 and 03:11) 
G|-------------------| 
D|-------------------| 
A|-10*-8*-12*-10*-8*-| 
E|-------------------| 
 
Chorus 
G|----------------| 
D|----------------| 
A|-10*-12*-10*-8*-| 
E|----------------|
 
 

Видео