U2 - One, аккорды

Прокрутка
Тональность
Шрифт
100
 Am                Dadd2             Fmaj7            G
-----------------------------------------------------------------------------
---------------h-p-h-----------h-p-h-------------h-p-h-----------------------
----h---5--/9--7-9-7-9-------7-5-7-5-7---------9-7-9-7-9-7--------------h--p-
--5-7--------------------0------------0---------------------7/9---10--9-10-9-
-------0--------------0--------------------8----------------8/10--10--10-----
-----------------------------------------------------------------------------

 Am           Dadd2
Is it getting better
 Fmaj7             G
Or do you feel the same
 Am             Dadd2
Will it make it easier on you
 Fmaj7                  G
Now you got someone to blame

Chorus riff:
 C               Am             Fmaj7          C
----------------------------------------------------------------------
------h-p-h-----------h-p-h----------h-p-h-------------h-p-h----------
----9-7-9-7-9-------9-7-9-7-9------9-7-9-7-9---------9-7-9-7-9--------
-10----------10----------------------------------10-----------10------
-----------------0-----------0--8-----------8-------------------------
----------------------------------------------------------------------
You say

 C        Am
One love, one life
 Fmaj7            C
When it´s one need in the night
      Am
It´s one love we get to share it
  Fmaj7                  C
It leaves you baby if you don´t care for it

2nd verse:
 Am            Dadd2         Fmaj7         G
---------------------------------------------------------------------
------------h-------------h-------------h----------------------------
---------9-7-9---------7-5-7---------9-7-9-------------h-------------
-12b-127------12b-127------12b-127------12b-129-10-9-10--------------
---------------------------------------------------------------------
---------------------------------------------------------------------

 Am           Dadd2
Did I disappoint you
 Fmaj7             G
Or leave a bad taste in your mouth
 Am           Dadd2
You act like you never had love
 Fmaj7            C
And you want me to go without

Chorus riff:
 C               Am             Fmaj7          C
----------------------------------------------------------------------
------h-p-h-----------h-p-h----------h-p-h-------------h-p-h----------
----9-7-9-7-9-------9-7-9-7-9------9-7-9-7-9---------9-7-9-7-9--------
-10----------10----------------------------------10-----------10------
-----------------0-----------0--8-----------8-------------------------
----------------------------------------------------------------------

 C        Am
Well it´s too late tonight
 Fmaj7            C
To drag the past out into the light
      Am
We´re one, but we´re not the same
 Fmaj7            C
We get to carry each other, carry each other
One

Solo: (recommended 0.2 sec delay)
  Am    Dadd2 Fmaj7  G
-----------------------------------
--13----10-----12----12-12-13-12---
---------------------12------------
-----------------------------------
-----------------------------------
-----------------------------------

 Am           Dadd2
Have you come here for forgiveness?
 Fmaj7             G
Have you come to raise the dead?
 Am           Dadd2
Have you come here to play Jesus
 Fmaj7             G
To the lepers in your head?

Chorus riff:
 C               Am             Fmaj7          C
----------------------------------------------------------------------
------h-p-h-----------h-p-h----------h-p-h-------------h-p-h----------
----9-7-9-7-9-------9-7-9-7-9------9-7-9-7-9---------9-7-9-7-9--------
-10----------10----------------------------------10-----------10------
-----------------0-----------0--8-----------8-------------------------
----------------------------------------------------------------------

 C        Am
Did I ask too much, more than a lot
 Fmaj7            C
You gave me nothing, now it´s all I got
           Am 
We´re one, but we´re not the same
 Fmaj7            C
We hurt each other then we do it again

You say
 C                Am
Love is a temple, Love a higher law
 C                Am
Love is a temple, Love the higher law
     C                    G
You ask me to enter, but then you make me crawl
        Fmaj7
And I can´t be holding on to what you got
       C
When all you got is hurt

Last chorus:
 C                         Am
|-12-12-12-12-12-12-13-12-|-12-12-12-12-12-12-13-12-|
|-13-13-13-13-13-13-13-13-|-13-13-13-13-13-13-13-13-|
|-12-12-12-12-12-12-12-12-|-14-14-14-14-14-14-14-14-|
--------------------------|-------------------------|
--------------------------|-------------------------|
--------------------------|-------------------------|

 Fmaj7                     C
|-12-12-12-12-12-12-13-12-|-12-12-12-12-13-12-13-12-|
|-13-13-13-13-13-13-13-13-|-13-13-13-13-13-13-13-13-|
|-14-14-14-14-14-14-14-14-|-12-12-12-12-12-12-12-12-|
--------------------------|-------------------------|
--------------------------|-------------------------|
--------------------------|-------------------------|

 C        Am
One love, one blood
 Fmaj7            C
One life, you got to do what you should
         Am
One life with each other
 Fmaj7          C
Sisters, brothers
 C        Am
One life, but we´re not the same
 Fmaj7            C
We get to carry each other, carry each other
One. One.

Outro: (with 0.2 sec delay)
 C                         Am
|--------12---------------|--------12---------------|
|-15------------15-----13-|-15------------15-----13-|
--------------------------|-------------------------|
--------------------------|-------------------------|
--------------------------|-------------------------|
--------------------------|-------------------------|

 Fmaj7                     C
|--------12---------------|--------12-----13-----12-|
|-15------------15-----13-|-15----------------------|
--------------------------|-------------------------|
--------------------------|-------------------------|
--------------------------|-------------------------|
--------------------------|-------------------------|

Комментарий автора:

Chords:
C      x 3 2 0 1 0
Fmaj7  x 3 3 2 1 0
Am     x 0 3 3 2 0
G      3 2 0 0 0 3
Dadd2  x x x 2 3 x
 
 

Видео