Ю-Питер - Черная птица - белые крылья, аккорды

Прокрутка
Тональность
Шрифт
100
Вступление: 
Em Am C Em Am C
E|--------------------------------------------------------------|
B|-8---8-7---7----10---10-8---8----8---8-7---7----10---10-7---7-|
G|---9-----9---------9------9--------9-----9---------9------9---|
D|--------------------------------------------------------------|
A|--------------------------------------------------------------|
E|-0--------------0----------------0--------------0-------------|

E|--------------------------------------------------------------|
B|-8---8-7---7----10---10-8---8----8---8-7---7------------------|
G|---9-----9---------9------9--------9-----9---------9------9---|
D|------------------------------------------------10---10-9---9-|
A|-0--------------0---------------------------------------------|
E|---------------------------------8----------------------------| }x2 
 
 Em
 Снится черная птица мне 
 Em
 Бьется клювом стальным в окно 
 Am
 И стекло так дрожит во сне 
 C
 Истекло видно время мое 
 Em
 И бушует гроза во тьме 
 Em
 Гром грохочет в душе моей 
 Am
 Хочет ворон влететь ко мне 
 C
 Обжигаемый молнией 
 
Припев: 
 Bm              Em
Вниз демоном каменным 
 Bm             Em
Без лика без имени 
 D                 G
Вверх ангелом пламенным 
 D          G D
Незримо невидимо 
 
Проигрыш: Em Am C
 
 Em
 Как бы жить мне и не дышать 
 Em
 Как быть если мне не летать 
 Am
 Не изведать не полюбить 
 C
 Как теперь жить сейчас и здесь 
 Em
 Снится черная птица мне 
 Em
 Крылья белые сломаны 
 Am
 Бьется клювом стальным в окно 
 C
 Обожженная молнией 
 
Припев: 
 Bm              Em
Вниз демоном каменным 
 Bm             Em
Без лика без имени 
 D                 G
Вверх ангелом пламенным 
 D            G D
Незримо невидимо 
 
Outro: Em Em Em      
 
 

Видео