Ю-Питер - Песня идущего домой, аккорды

Прокрутка
Тональность
Шрифт
100
  E ||------------6--5--3-----|--3---------6--5--3----| 
  B ||--3------3-----------6--|---------3-----------6-| 
  G ||------------------------|-----------------------| 
  D ||------------------------|-----------------------| 
  A ||------------------------|-----------------------| 
  E ||------------------------|-----------------------| 

  E |-5---------8--6--5--3--|--5---------8--6--5--3-| 
  B |--------3--------------|---------3-------------| 
  G |-----------------------|-----------------------| 
  D |-----------------------|-----------------------| 
  A |-----------------------|-----------------------| 
  E |-----------------------|-----------------------|  

  E |-----------6--5--3-----|--3---------6--5--3----| 
  B |-3------3-----------6--|---------3-----------6-| 
  G |-----------------------|-----------------------| 
  D |-----------------------|-----------------------| 
  A |-----------------------|-----------------------| 
  E |-----------------------|-----------------------|  

  E |-5~-------5--5-| 
  B |---------------| 
  G |---------------| 
  D |---------------| 
  A |---------------| 
  E |---------------|  

Dm                  B 
Я шёл к с домой, я шёл по мокрым лужам, 
C                       Gm 
По скользкой мостовой, ногами снег утюжил 
Gm            Dm     Gm      Dm 
А мокрый снег падал, а я шёл домой, 
Gm         Dm    Gm        Dm       Gm 
По зимнему саду, по пустой мостовой.    
C           F      C         F 
Он шёл со мной рядом, шпионил за мной,   
C            F         C          Gm 
Следил за мной взглядом, бесшумный конвой. 
Gm               C    Dm 
И вот я стою, на краю снегопада,               
Gm 
С неба падает снег 
C             Dm 
Значит небу так надо
  
В это трудно поверить, я вернулся домой, 
Ты открыла мне двери, снег вошёл вслед за мной, 
И вдруг снег растаял, увидел тебя, 
На пороге остались, только капли дождя 
Нас уносит река, плавных вёсел волнами, 
Будто кто-то открыл все нсные краны, 
Мы стоим на краю, на краю водопада, 
С н льётся вода, 
Значит н так надо.
 
 

Видео