Ю-Питер - Колесницегонитель, аккорды

Прокрутка
Тональность
Шрифт
100
Dm
Колесницегонитель спит
Колесница стоит
A
Бесконечные слова
Вечно тянутся за нами 

Ветру снится золотая нить
Стаи огненных птиц
Их короткие слова
Улетают словно камни

Перебор (2 раза):

           D                 G
E||-2-----2-----2---|-3-----3-----3---|
H||---3-----3-----3-|---3-----3-----3-|
G||-----2-----2-----|-----0-----0-----|
D||-----------------|-----------------|
A||-----------------|-----------------|
E||-----------------|-----------------|

           C                 Dm
E||-0-----0-----0---|-1-----1-----1---|
H||---1-----1-----1-|---3-----3-----3-|
G||-----0-----0-----|-----2-----2-----|
D||-----------------|-----------------|
A||-----------------|-----------------|
E||-----------------|-----------------|

Ангел мой хранитель строго бдит
Слышит каждый мой шаг
Наши громкие слова
Покрывает голосами

На границе у последних сил
На граните могил
Наши верные слова
Обливаются слезами
Gm       C     B      C  Gm C B C
Дай мне тайн твоих узнать...

Соло:

          Dm
D||---------5-------|
A||-5-5-7-8---8-7-5-| > 4 раза
E||-----------------|

           A
D||-----------------|
A||-----4-5-7-5-4---| > 4 раза
E||-5-5-----------6-|

Колесницегонитель мчит
Колесница летит
Наши тайные слова
Развеваются над нами

У возницы золотая плеть
Стоит только взмахнуть
Бесподобные слова
В небе вьются облаками

Дай мне тайн твоих узнать...

Комментарий автора:

Когда играется припев, при распевании буквы \"А\" в слове \"Узнать\" Каспарян (соло-гитарист) играет тремоло на второй струне:
      Gm       C        B        C
E||--------|--------|--------|--------|
H||33333333|55555555|66666666|88888888|
 
 

Видео