Ю-Питер - Песня идущего домой, аккорды

Прокрутка
Тональность
Шрифт
100
Вступление:
 Gm       Am       Dm(V)           Gm       Am      Dm(V)
 |--6--5------------|-------------------6--5----------|----------------|
 |--------8--6-5----|--5--6--5--6--7----------8--6-5--|--5--6----------|
 |5/7---------------|7--------------5/7---------------|7-------7-------| 
 |------------------|---------------------------------|----------------| [1]
 |------------------|---------------------------------|----------------|
 |------------------|---------------------------------|----------------|

 Gm                               Am
 |--------------------------------|--------------------------------|
 |8---------------11--10--8-------|8---------------11--10--8-------|
 |-------------7--------------10--|------------7---------------10--|
 |--------8-----------------------|--------8-----------------------| [2]
 |----10--------------------------|----10--------------------------|
 |--------------------------------|--------------------------------|

 Dm(V)                            
 |--------------------------------|--------------------------------|
 |10--------------13--11--10------|10--------------13--11--10------|
 |------------10--------------12--|------------10--------------10--|
 |--------12----------------------|--------12----------------------|
 |----12--------------------------|----12--------------------------|
 |--------------------------------|--------------------------------|

 Gm                               Am                                Dm(V)
 |--------------------------------|--------------------------------|---
 |8---------------11--10--8-------|8---------------11--10--8-------|10-
 |------------9---------------10--|------------7---------------10--|---
 |--------10----------------------|--------8-----------------------|---
 |----10--------------------------|----10--------------------------|---
 |--------------------------------|--------------------------------|---

Dm
Я шел к себе домой,
B 
Я шел по мокрым лужам,
Gm
По скользкой мостовой
C
Ногами снег утюжил...
 
Dm   B    Gm   C
А мокрый снег падал,
Dm   B    Gm C
А я шел домой
Dm   B    Gm  C
По зимнему саду
Dm   B    Gm   C
По пустой мостовой.
 
F
Он шел со мной рядом,
B          F   B 
Шпионил за мной.
Dm
Следил за мной взглядом
C                F
Бесшумный конвой....
 
Gm
И вот я стою
Am             Dm(V)
На краю снегопада
Gm               [1]
С неба падает снег
Am                 Dm(V)
Значит небу так надо

Проигрыш: [2]
 
Dm   B    Gm   C
В это трудно поверить
Dm   B    Gm   C
Я вернулся домой
Dm   B    Gm   C
Ты открыла мне двери -
Dm   B    Gm   C
Снег вошел вслед за мной.
 
F
И вдруг снег растаял,
B          F  B 
Увидел тебя...
Dm
На пороге остались
C                F
только капли дождя.
 
Gm
Нас уносит река
Am             Dm(V)
Плавных весел волнами,
Gm               [1]
Словно кто-то открыл все небесные краны 
G
Мы стоим на краю,
Am             Dm(V)
На краю водопада.
Gm               [1]
С неба льется вода
Am                 Dm(V)
Значит небу так надо.

Проигрыш: [2]

Комментарий автора:

Am: 577555
 
 
Свернуть Распечатать

Видео