Uncle Kracker - Follow Me, аккорды

Прокрутка
Тональность
Шрифт
100
Uncle Kracker, Follow me.
 Tabbed by Mike, BizkitKornGazak@AOL.com.
  
the rest of them suck this one sounds the best, biotch

e---7h9p7-5---5-------5h7-7h9-------------------
b-----------7---7-5-7---------------------------
g-----------------------------------------------
d-----------------------------------------------
a-----------------------------------------------
E-----------------------------------------------

e--7h9p7-5---5-------5h7-5----------------------
b----------7---7-5-7----------------------------
g-----------------------------------------------
d-----------------------------------------------
a-----------------------------------------------
E-----------------------------------------------

There you go guitar kids now play nice, and dont suck, biotch 
:: Ultimate Guitar Archive :: 
http://www.ultimate-guitar.com