Uriah Heep - July Morning, аккорды

Прокрутка
Тональность
Шрифт
100
Intro:
 F           C           F
E-13------13-----------13-|-12-------12----------12-|-8-------8----------8-|
B---13--------13----13----|----13-------13----13----|---10------10----10---|
G------14--------14-------|-------12-------12-------|------10------10------|
D-------------------------|-------------------------|----------------------|
A-------------------------|-------------------------|----------------------|
E-------------------------|-------------------------|----------------------|

 C
E-12-------12----------12-|
B----13-------13----13----|
G-------12-------12-------| }x6
D-------------------------|
A-------------------------|
E-------------------------|

Guitar II: (Mick Box part - overdrive & chorus)
Starts when the keyboards (Guitar I) pattern 
goes for the third and the fourth rounds:
E-13-13-13-13-|-13-11 -----------|-13-13-13-13-|-13-11----------15-|
B-------------|--------13-11-13~~|-------------|-------13-11-13----|
G-------------|------------------|-------------|-------------------|
D-------------|------------------|-------------|-------------------|
A-------------|------------------|-------------|-------------------|
E-------------|------------------|-------------|-------------------|

                V
E----11---11----11---11-|---13-12------|-15-15-15-15-15-15-15-15-15-15-15-|
B-13---13----13----13---|-13-------13~-|----------------------------------|
G-----------------------|--------------|----------------------------------|
D-----------------------|--------------|----------------------------------|
A-----------------------|--------------|----------------------------------|
E-----------------------|--------------|----------------------------------|

E-15-13----------|
B------13-15-13~-|
G----------------|
D----------------|
A----------------|
E----------------|

The fifth and the sixth rounds of Intro:
Guitar II plays power chords:
 F5          C5        F5     C5
E----------------|-------------|---------|-------------|
B----------------|-------------|---------|-------------|
G----------------|-------------|---------|-------------| }x2
D-8--8--8--8--8--|-8--8--8--8--|-3-3-3-3-|-8--8--8--8--|
A-10-10-10-10-10-|-8--8--8--8--|-3-3-3-3-|-8--8--8--8--|
E-10-10-10-10-10-|-10-10-10-10-|-1-1-1-1-|-10-10-10-10-|

Cm      Fm    A# 
There I was on a July morning 
A#
looking for love.
Cm      Fm    A# 
With the strength of a new day 
A#
dawning and the beautiful sun.
Cm      Fm    A# 
At the sound of the first bird 
A#
singing I was leaving for home.
Cm      Fm    A# 
With the storm and the night 
A#
behind me and a road of my own.

Refrain:
  D#5   G5   G#5 A#5
E-------|-------|--------|-------------|
B-------|-------|--------|-------------|
G-------|-------|--------|-------------|
D---8---|---5---|--6--8--|-------------|
A---6---|---5---|--6--8--|-------------|
E---6---|---3---|--4--6--|-8-7-6-5-4-3-|
With the day came the resolution I'll be looking for you.

  D#5   G5   G#5 A#5   C5
E-------|-------|--------|-------|
B-------|-------|--------|-------|
G-------|-------|--------|-------|
D---8---|---5---|--6--8--|---10--|
A---6---|---5---|--6--8--|---10--|
E---6---|---3---|--4--6--|---8---|
La la la laaaa

Cm      Fm    A# 
I was looking for love 
A#
in the strangest places.
Cm      Fm    A# 
There wasn't a stone 
A#
that I left unturned.
Cm      Fm    A# 
I must have tried more 
A#
than a thousand faces,
Cm      Fm    A# 
but not one was aware 
A#
of the fire that burned

  D#5   G5   G#5 A#5
E-------|-------|--------|-------------|
B-------|-------|--------|-------------|
G-------|-------|--------|-------------|
D---8---|---5---|--6--8--|-------------|
A---6---|---5---|--6--8--|-------------|
E---6---|---3---|--4--6--|-8-7-6-5-4-3-|
In my heart, in my mind, in my soul.

  D#5   G5   G#5 A#5   C5
E-------|-------|--------|-------|
B-------|-------|--------|-------|
G-------|-------|--------|-------|
D---8---|---5---|--6--8--|---10--|
A---6---|---5---|--6--8--|---10--|
E---6---|---3---|--4--6--|---8---|
In my heart, in my mind, in my soul. 

Solo: Cm Fm A# 

Refrain:
  D#5   G5   G#5 A#5
E-------|-------|--------|-------------|
B-------|-------|--------|-------------|
G-------|-------|--------|-------------|
D---8---|---5---|--6--8--|-------------|
A---6---|---5---|--6--8--|-------------|
E---6---|---3---|--4--6--|-8-7-6-5-4-3-|

  D#5   G5   G#5 A#5   C5
E-------|-------|--------|-------|
B-------|-------|--------|-------|
G-------|-------|--------|-------|
D---8---|---5---|--6--8--|---10--|
A---6---|---5---|--6--8--|---10--|
E---6---|---3---|--4--6--|---8---|

Cm C Fm G 
La la laaaaaaaa

Overdriven guitar line: x2
E-----------|-------|-------------------------------|--------|
B-----------|-------|-------------------------3-4-3-|--------|
G-----------|-------|--------------------5-4--------|---5~---|
D-5-------5-|-4---4-|--------------5-4-5------------|--------|
A---6---6---|---5---|--8-6-8-6-5-6------------------|--------|
E-----8-----|-------|-------------------------------|--------|

Cm      Fm    A# 
There I was on a July morning - 
A#
I was looking for love.
Cm      Fm    A# 
With the strength of a new day 
A#
dawning and the beautiful sun.
Cm      Fm    A# 
At the sound of the first bird 
A#
singing I was leaving for home.
Cm      Fm    A# 
With the storm and the night 
A#
behind me and a road of my own.

Refrain:
  D#5   G5   G#5 A#5
E-------|-------|--------|-------------|
B-------|-------|--------|-------------|
G-------|-------|--------|-------------|
D---8---|---5---|--6--8--|-------------|
A---6---|---5---|--6--8--|-------------|
E---6---|---3---|--4--6--|-8-7-6-5-4-3-|
With the day came the resolution I'll be looking for you.

  D#5   G5   G#5 A#5   C5
E-------|-------|--------|-------|
B-------|-------|--------|-------|
G-------|-------|--------|-------|
D---8---|---5---|--6--8--|---10--|
A---6---|---5---|--6--8--|---10--|
E---6---|---3---|--4--6--|---8---|
La la la laaaa

Solos & Outro:
E-----------|-------|-------------------------------|--------|
B-----------|-------|-------------------------3-4-3-|--------|
G-----------|-------|--------------------5-4--------|---5~---|
D-5-------5-|-4---4-|--------------5-4-5------------|--------|
A---6---6---|---5---|--8-6-8-6-5-6------------------|--------|
E-----8-----|-------|-------------------------------|--------|

_______________________________________
Organ Intro:
chords -> F/C         C          
tones -> F C A F C A C F E C G E C G C E 
chords -> F/C         C          
tones -> C A F C A F A C E C G E C G C E 
chords -> F/C         C          
tones -> F C A F C A C F E C G E C G C E 
chords -> F/C         C          
tones -> C A F C A F A C E C G E C G C E 

Guitar solo opening:
  F/C              C
E-------------------------------------------
B-16b18-16b18-16b18-16b18-16b18r16-13----13-
G-------------------------------------15----
D-------------------------------------------
A-------------------------------------------
E-------------------------------------------

  F/C              C
E-------------------------------------------15-
B-16b18-16b18-16b18-16b18-16b18r16-13----13----
G-------------------------------------15-------
D----------------------------------------------
A----------------------------------------------
E----------------------------------------------

  F/C                C
E-------------------------------------------12----
B-------16-------16-------16-------16----------13-
G-15b17----15b17----15b17----15b17----15b17-------
D-------------------------------------------------
A-------------------------------------------------
E-------------------------------------------------

  F/C
E-15b17-15b17-15b17-15b17-15b17-15b17-15b17-15b17-
B-------------------------------------------------
G-------------------------------------------------
D-------------------------------------------------
A-------------------------------------------------
E-------------------------------------------------
                  C
E-15b17-15b17-15b17-15b17-15b17-15b17----------
B-------------------------------------16-15-13-
G----------------------------------------------
D----------------------------------------------
A----------------------------------------------
E----------------------------------------------

F/C C F/C C }x2

Verse:		
Cm           Fm
There I was on a July morning
Bb       Cm
Looking for love
Cm
With the strength
    Fm
Of a new day dawning
Bb           Cm
And the beautiful sun

Cm        Fm
At the sound of the first bird singing
Bb       Cm
I was leaving for home
Cm
With the storm
    Fm
And the night behind me
Bb           Cm
And a road of my own

Chorus:		
Eb        Gm           Ab Bb
With the day came the resolution
        Cm
I'll be looking for you
Eb
La la la la
Gm       Ab Bb
La la la la
     Cm - Fm - Bb
La la laaaaaaa

Verse:		
Cm        Fm
I was looking for love in the strangest places
Bb       Cm
Wasn't a stone that I left unturned
Cm
Must have tried more
  Fm
Than a thousand faces
Bb           Cm
But not one was aware of the fire that burned

Chorus:		
Eb        Gm           Ab Bb
In my heart, in my mind, in my soul
        Cm
In my heart, in my mind, in my soul
Eb
La la la la
Gm       Ab Bb
La la la la
     Cm - Fm - Bb
La la laaaaaaa

Organ solo:	 
Cm Fm Bb Cm Cm    C    Fm  G
La-a-a La-a-a La-a-a Laaaaaa

Guitar Bridge:
 Cm     D    Fm   Eb   G          Cm
E------------------------------------------------
B------------------------------------------4-3---
G------------------------------------5-4-5-----5-
D-5-------5-4---4--3p1-3-1p0-1-5p4-5------------- 
A---6-3-6-----5----------------------------------
E------------------------------------------------

Verse:		
Cm        Fm
There I was on a July morning
Bb       Cm
I was looking for love
Cm
With the strength
  Fm
Of a new day dawning
Bb       Cm
And the beautiful sun

Cm        Fm
And at the sound of the first bird singing
Bb       Cm
I was leaving for home
Cm
With the storm
  Fm
And the night behind me
Bb       Cm
Yeah, and a road of my own

Chorus:		
Eb        Gm           Ab Bb
With the day came the resolution
        Cm
I'll be looking for you
Eb
La la la la
Gm       Ab Bb
La la la la
     Cm - Fm - Bb
La la laaaaaaa

Outro:
  Cm     D    Fm   Eb   G          Cm
E------------------------------------------------
B------------------------------------------4-3---
G------------------------------------5-4-5-----5-
D-5-------5-4---4--3p1-3-1p0-1-5p4-5------------- Repeat to fade
A---6-3-6-----5----------------------------------
E------------------------------------------------
 
 

Видео