Uriah Heep - Something Or Nothing, аккорды

Прокрутка
Тональность
Шрифт
100
Guitar Intro (played 4 times!):
  D      E/D  F/D   G/D     F/D  C/D D
[E--5----5----7-----8-----10----10----8-----3---5-------
B--8b10-8b10-10b12-11b13-13b15-13b15-11b13-6b8-8b10----
G------------------------------------------------------
D------------------------------------------------------
A------------------------------------------------------
E------------------------------------------------------]

Verse:		
   D     A     C      G       D D C G D D C G
There's never a day when I've got nothing to do
 D        A     C   G       D D C G D D C G
Something to me might mean nothing to you
   C         G       D D C G D D C G
So don't don't don't don't look at me strangely now
     A     G       A     G       D
We'll find the line that's in the middle and run

Guitar Intro here:
Something We've gotta run something or nothing
Something .... Something or nothing

Verse:		
You say you love to spend days...But I will save mine
Waiting for the sun in your eyes... To turn the river to wine
But don't don't don't don't look at me strangely now
Were gonna find the line that's in the middle and run
Something We've gotta run something or nothing
Something .... Something or nothing

Guitar solo:	  G
[E----------------------------------------------------------15-
B-------------------------------------------------------15----
G-14b16r14p12-14-12----12-14b16r14p12-14-12----12-14b16-------
D-------------------14----------------------14----------------
A-------------------------------------------------------------
E-------------------------------------------------------------

E--------------------------------------------------------
B-15-----------------------------------------------------
G----14b16r14-12h14p12----12----12-12-----12-12h14p12----
D----------------------14----14--------14-------------14-
A--------------------------------------------------------
E--------------------------------------------------------

E-------------------------------------------------------------
B-------------------------------------------------------------
G-12h14p12----12h14p12----12h14p12----12h14p12----12h14p12----
D----------14----------14----------14----------14----------14-
A-------------------------------------------------------------
E-------------------------------------------------------------

E-------------------------------------------------------------
B-------------------------------------------------------------
G-12h14p12----12h14p12----14b16-14b16-14b16-14b16-14b16-14b16-
D----------14----------14-------------------------------------
A-------------------------------------------------------------
E-------------------------------------------------------------

E-------------------------------------------------------
B-14b16-14b16-14b16-14b16-14b16-14b16-14b16-14b16-14b16-
G-------------------------------------------------------
D-------------------------------------------------------
A-------------------------------------------------------
E-------------------------------------------------------

E-------------------------15-0-0-13-0-0-12-0-0-10-0-0-8-0-0-
B-14b16-14b16-14b16-14-12-----------------------------------
G-----------------------------------------------------------
D-----------------------------------------------------------
A-----------------------------------------------------------
E-----------------------------------------------------------

E-7-0-0-5-0-0-3-0------------------------------------------
B-----------------0-1-0-0-3-0-0-5-0-0-7-0-0-8-0-0-10-0-0-8-
G----------------------------------------------------------
D----------------------------------------------------------
A----------------------------------------------------------
E----------------------------------------------------------

E----------------------------------
B-------------------13b15-13-12-12-
G-14b16-14b16-14b16----------------
D----------------------------------
A----------------------------------
E----------------------------------]

Verse:		
You say you love to spend days...But I will save mine
Waiting for the sun in your eyes...to turn the river to wine
So don't don't don't don't look at me strangely now
We'll find the line that's in the middle and run
 E E D A   E E D A       E E D A E E
Something...something ... or nothing
    A   B D D C G     D D C G    D D C G D D G A
It's gotta be something ... something or nothing
 E E D A    E E D A      E E D A E E
Something... something... or nothing
    A   B D D C G     D D C G    D D C G D D G A
It's gotta be something... something or nothing
 
 

Видео