Uriah Heep - Blind Eye, аккорды

Прокрутка
Тональность
Шрифт
100
Intro: Am G F G Am G F G Am ... (drums fill in)

Double lead guitar theme:
  Am        G     Am        D
[E-----0-3---2-0-2-----------0-3----7--5-------------
B-1h3-------------3-----1h3--------------7----------
G-------------------4------------------------------- 1st lead
D--------------------------------------------------- guitar
A---------------------------------------------------
E---------------------------------------------------
                       
E---------------------------------------------------
B-------5----------------------5---8--7-------------
G---4-5-----7-5-7-4--------4-5-----------7----------
D-7-----------------5----7-------------------------- 2nd lead
A--------------------------------------------------- guitar
E---------------------------------------------------

  Am        G     Am    E     Am E Am    E     Am
E-----0-3---2-0-2---------------2-3------------------2-3-------
B-1h3-------------3-----5-3p1p0-----5-3------5-3p1p0-----5-3-1-
G-------------------4-------------------5-4-------------------- 1st lead
D-------------------------------------------------------------- guitar
A--------------------------------------------------------------
E--------------------------------------------------------------
                        
E--------------------------------------------------------------
B-------5-----------------------4-5------------------4-5-------
G---4-5-----7-5-7-4-----5-4p2p0-----5-4-2----5-4p2p0-----5-4-2-
D-7-----------------5---------------------2-------------------- 2nd lead
A-------------------------------------------------------------- guitar
E--------------------------------------------------------------]

Verse:		
Am
Stranger than the sunrise
Darker than the night
Am D        Am
Fiercer than a rainstorm
G         Am
This is man's delight
G         Am
This is man's delight

Verse:		
Weaker than a moment
And hot as any fire
Blinder than the blind eye
This is man's desire
This is man's desire

Bridge:		
  A       Bm
I ran to a place in the open sea
       D
Where I pledged
           G
My life to the sun
     A
It was good for a while
      Bm
I could laugh, I could smile
        D
But when I woke up one day
   E     Am
The sun had gone

Play the dbl lead guitar theme twice here!

Bridge:		
  A       Bm
I ran to a place in the open sea
       D
Where I pledged
           G
My life to the sun
     A
It was good for a while
      Bm
I could laugh, I could smile
        D
But when I woke up one day
   E     Am
The sun had gone

Verse:		
   Am
So what of my meaning
What Am I trying to say
 Am-D    Am
What of my caution
     G    Am
I'm a man anyway
     G    Am
I'm a man anyway

fade to the very first part of the dbl guitar theme!
 
 

Видео