Uriah Heep - Sympathy, аккорды

Прокрутка
Тональность
Шрифт
100
Background Riff
e----------------------------------------------------------------------------
B----------------------------------------------------------------------------
G----------------------0--0-0-0-0--0-0---------------------0--0-0-0-0--0-0---
D--0--0-0-0-0--0-0----------------------0--0-0-0-0--0-0----------------------
A----------------------------------------------------------------------------
E----------------------------------------------------------------------------

e------------------------------------------------------------------------------------
B------------------------------------------------------------------------------------
G------------------------------------------------------------------------------------
D-0--0-0-0-0--0-0-----------------0--0-0-0-0--0-0--0--0-0-0-0--0-0--0--0-0-0-0--0--0-
A------------------0--0-0-0-0--0-----------------------------------------------------
E------------------------------------------------------------------------------------

Intro
e-----------------------------------------------------------------------
B-----------------------------------------------------------------------
G--7-9-10~--10b12-10-9-7-9-10-10--12b14-12~---7-9-10~--10b12-10-9-6-7~--
D-----------------------------------------------------------------------
A-----------------------------------------------------------------------
E-----------------------------------------------------------------------

Riff 1
e-----------------------------------------------------------------------
B-----------------------------------------------------------------------
G------7-------7----------------------------7------7--------------------
D------7-------7-----------5------5---------7------7-----------5------5-
A--5-5-5--5-5--5-----------5------5-----5-5-5--5-5-5-----------5------5-
E----------------------3-3-3--3-3-3------------------------3-3-3--3-3-3-

e---------------------------------------------------------------------
B---------------------------------------------------------------------
G------7------7-------------------------------7------7------7------7--
D------7------7------------7------7-----------7------7------7------7--
A--5-5-5--5-5-5------------7------7-------5-5-5--5-5-5--5-5-5--5-5-5--
E----------------------5-5-5--5-5-5-----------------------------------

Riff 2
e----------------------------------------------------------------
B----------------------------------------------------------------
G-------------------------------------7------7------7--------7---
D-------5------5------5------5--------7------7------7--------7---
A-------5------5------5------5----5-5-5--5-5-5--5-5-5--5-5-5-5---
E---3-3-3--3-3-3--3-3-3--3-3-3-----------------------------------

e-----------------------------------------------------------------
B-----------------------------------------------------------------
G----------------------------------------7------7------7------7---
D-------7-------7-------7-------7--------7------7------7------7---
A-------7-------7-------7-------7----5-5-5--5-5-5--5-5-5--5-5-5---
E---5-5-5---5-5-5---5-5-5---5-5-5---------------------------------

Solo
e-------------------------------------------------------
B---11--13-11-10-8-10---11-10-8-----8---10-8-----8-10---
G-------------------------------10------------10--------
D-------------------------------------------------------
A-------------------------------------------------------
E-------------------------------------------------------

e---------------------------------------------------------------------------
B-13b15-13-11--13-11-10-8-10---11-10-8-----8---10-8-----8-13--15--17--18----
G---------------------------------------10-----------10---------------------
D---------------------------------------------------------------------------
A---------------------------------------------------------------------------
E---------------------------------------------------------------------------

Riff 3                          
               x5                                       x2
e--------------------------|-------------------|--------------------|
B--------------------------|-------------------|--------------------|
G--------------------------|-------------------|--------------------|  
 
 
Свернуть Распечатать

Видео