Uriah Heep - Time of revelation, аккорды

Прокрутка
Тональность
Шрифт
100
(Moving to a fantasy world)
Guitar Intro: (played twice)
  Am                       Am F G E
[E---------------------------------------------------------------
B---------1-------------------------------1---------------------
G-0h2p0-----2--0h2p0---0-2---0-2--0h2p0-----2--0h2p0------------
D-------2------------2-----2------------2------------2----------
A---------------------------------------------------------------
E---------------------------------------------------------------]

Am
verse:		Won't you take a chance my brother 
             F   G E
Follow me to a time of revelation
 Am
Can't you see that destiny will take a turn
        F     G E          Am
And show there's no need to fight - 'cos you know it's right
   
     Dm       C   G
chorus:		And I finally see where I'm going
  Dm        C    G
I finally know what I'm knowing
 Dm          C   E    Am
Now our journey's only just began

Guitar Intro

verse:		You won't need to ask forgiveness
What you find will be your inspiration
You don't have to pray for glory
All is equal on more pain you know it's true it's up to you

chorus:		'Cos I finally see where I'm going
I finally know what I'm knowing
Now our journey's only just began

Am
bridge:		Over the bridge where you start to believe
           D   G
Down at the edge of the rainbow
 Am
Dark is the night though it's in another time
            D E
Follow the light of your shadow

Guitar solo:	  Bm     E     Bm     F#     G       E     Bm
[E-----------12-----------------14-12--------------12-------------
B-12--14-15----15-14-12--14-15-------15-12--14-15----15-14-12----
G-------------------------------------------------------------11-
D----------------------------------------------------------------
A----------------------------------------------------------------
E----------------------------------------------------------------
  Bm     E     Bm     F#     G     E     Bm C   G
E-17-15-14----------19-17-15-14-------21-19-17----19-21-22-22b24-22-
B----------17-15-15-------------17-17----------20-------------------
G-------------------------------------------------------------------
D-------------------------------------------------------------------
A-------------------------------------------------------------------
E-------------------------------------------------------------------]

verse:		Right or wrong there is no reason
There will be no hidden destination
With the strength that you discover
You can show the way how it was meant to be for all to see

chorus:		'Cos I finally see where I'm going
I finally know what I'm knowing
Now our journey's only just began

bridge:		Over the bridge where you start to believe
Down at the edge of the rainbow
Dark is the night though it's in another time
Follow the light of your shadow

Guitar solo:	  Bm     E     Bm     F#     G       E     Bm   C G
[E-----------12-----------------14-12--------------12-------------
B-12--14-15----15-14-12--14-15-------15-12--14-15----15-14-12----
G-------------------------------------------------------------11-
D----------------------------------------------------------------
A----------------------------------------------------------------
E----------------------------------------------------------------]

bridge:		Over the bridge where you start to believe
Down at the edge of the rainbow
Dark is the night though it's in another time
Follow the light of your shadow

bridge:		Over the bridge where you start to believe
Down at the edge of the rainbow
Dark is the night though it's in another time
Follow the light of your shadow

Guitar Intro (four times), then C G
 
 

Видео