Юрко Юрченко - Стеляться тумани, аккорды новинка

Прокрутка
Тональность
Шрифт
100
Вступ
e-------1-----------1------------1-----------1--------|
B-----3---3-------3---3-------3---3-----3----3--------|
G---2-------2---3-------3---4------4--4--------4------|
D-0-----------0-----------0-----------0-------------0-|
A-----------------------------------------------------|
E-----------------------------------------------------|
Замість Dm грати
e------1----------1------------|
B-----3--3------3---3----------|   
G---2------2---3-----3---------|
D-0----------0--------0--------|
A------------------------------|   
E------------------------------|
Dm
Стеляться тумани, в голові дурмани,
Bb    A      Dm
Таке, ніби як малим було.
Dm
Я знов нап’юся, сам не розберуся,
Bb       A
Казала ж мені бабуся –
Dm
Не спіши…
Bb  C           F
А я не послухав, не хотіли мої вуха
Gm   A            Dm
         Слухатися
Bb    C         F           Gm
Тепер я не знаю, бабусі вже немає,
A      Dm
Не знаю…

Dm
У моєму колі забагато молі,
Bb    A     Dm
З’їли, суки, татів кожух.
Dm
Я сам вже дядько і не скаже батько,
Bb      A         
Та й не скаже батько,
Dm
Не знає…
F   G           C                           
А я встану рано, заховаюся в тумани –
Gm   A            Dm
        Добре мені
F    G          C                 Gm
Стеляться тумани, в голові моїй дурмани. 
A            Dm
  Дивно мені...

F  G  C  Gm  
A          Dm 
Ой, дивно мені!..
 
 
Свернуть Распечатать

Видео