Валентин Стрыкало - Наше лето (укулеле, аккорды и табы риффа), аккорды

Прокрутка
Тональность
Шрифт
100
Главный рифф:

   Am              F               Dm              E7
A--0------5--3--3--0------5--3--3--0------3--2--2--2------3--2--2--
E--0----5----------1----5----------1----1----------0----1----------
C--0--4------------0--4------------2--2------------2--2------------
G--2---------------2---------------2---------------1---------------


   Am              F               Dm              
A--0------5--3--3--0------5--3--3--0------3--2--2--7--5--2
E--0----5----------1----5----------1----1----------0--0--0
C--0--4------------0--4------------2--2-------------------
G--2---------------2---------------2----------------------


Проигрыш
Am F Dm E7 x2 
 
Am         F         Dm           E7
Тихо лужи покрывает лед, помнишь мы с тобою
Am          F         Dm      E7
Целовались ночи напролет под шум прибоя
Am        F          Dm     E7
Это лето не вернуть уже я знаю 
Am          F            Dm          E7
Но когда печаль в моей душе я вспоминаю 

Припев
Am     F    Dm            E7          Am
Яхта, парус, в этом мире только мы одни
     F      Dm         E7        Am
Ялта, август и мы с тобою влюблены
Am     F    Dm            E7          Am
Яхта, парус, в этом мире только мы одни
Am   F      Dm         E7        Am
Ялта, август и мы с тобою влюблены

Am             F               Dm        E7
Но расстаться нам с тобой пришлось кончилась путевка
Am           F            Dm       E7
И вагон плацкартный меня нес в Новую Каховку 
Am         F         Dm      E7
Не забуду ночи при луне и твою улыбку
Am           F         Dm       E7
Ты открытку подарила мне, а на той открытке

Припев x2
Am     F    Dm            E7          Am
Яхта, парус, в этом мире только мы одни
     F      Dm         E7        Am
Ялта, август и мы с тобою влюблены
Am     F    Dm            E7          Am
Яхта, парус, в этом мире только мы одни
Am   F      Dm         E7        Am
Ялта, август и мы с тобою влюблены

Комментарий автора:

Подбор для укулеле.
Правильное расставленные аккорды + табулатура главного риффа.
Бой шестерка с глушением.
Первые две строчки припева играются одиночными ударами вниз на каждый аккорд.
 
 
Свернуть Распечатать

Аппликатуры аккордов

Аккорд AmАккорд FАккорд DmАккорд E7
RustoRusto
автор подбора аккордов
6,489 10 06.07.2021

Видео