Валентин Стрыкало - Я стараюсь быть лучше, аккорды

Прокрутка
Тональность
Шрифт
100
Вступление: 
 C(VIII)       C/B     Am(V)       Dm(V)              G(III)
E------------------------------------------------------------------------
B---------------------------------------5-6--6--6--6---------------------
G--------9---------9--------5--5-6-7-----7--7--7--7---------4---4--4-----
D-----10-------10--------7----------------------------------5---5---5--5-
A--10-------10---------7---------------5----------------5----------------
E-8--------7----------5-----------------------------------3--------------

2-я строчка в куплете:  Am(V)   G(III)           F                C(VIII)               G(III)
E----------5-------------3-----------------1-1-1-1------------------ 8-8-8-8-------------3-3-3-3- 
B----------5-------------3-----------------1-1-1-1-------------------8-8-8-8-------------3-3-3-3                                  
G----------5-------------4-----------------2-2-2-2-------------------9-9-9-9-------------4-4-4-4-
D------------------------------------------------------------------------------------------------
A------7------------5------------------3--------------------10-----------------------5-----------
E-5----------3-----------------1---------------------8------------------------3------------------

(1)
     C     C/B     Am             Dm           G
Я проснулся в собственной луже, среди обшарпанных стен.
   Am    G         F                C          G
Но я стараюсь быть лучше каждый день, каждый день.
     C     C/B     Am             Dm           G
Меня вечно тошнит или сушит, это плохо, но вместе с тем.
   Am    G         F                C          G
Я стараюсь быть лучше каждый день, каждый день.

Припев:
    F              Fm                 C               Am
И видит ночь в моих глазах, всего лишь боль, всего лишь страх 
 F                Fm         C C/B Am
Я так боюсь в ней что-то упустить.  
 F            Fm         C           Am
Сегодня утром тает снег, и я обычный человек 
 F                Fm         C C/B Am
Проснулся чтобы что-то изменить 
 F                Fm           C
Проснулся чтобы что-то изменить.

(2)
  C    C/B       Am             Dm            G
Я вчера в магазине игрушек показывал школьникам член.
  Am    G         F                C          G
Но я стараюсь быть лучше каждый день, каждый день.
     C     C/B     Am             Dm           G
Я соседскому парню Илюше продавать стал амфетамин.
   Am    G         F                C          G
Илюша не хочет быть лучше так хуй с ним, так хуй с ним.

Припев:
    F              Fm                 C               Am
И видит ночь в моих глазах, всего лишь боль, всего лишь страх  
   F                Fm         C C/B Am
Я так боюсь в ней что-то упустить.
  F            Fm         C           Am
Сегодня утром тает снег, и я обычный человек
 F                Fm         C   C/B Am
Проснулся чтобы что-то изменить
 F                Fm           C
Проснулся чтобы что-то изменить.

(3)
  C    C/B       Am             F         G
Я топчу твое сердце покуда, ты одумаешься и поймешь.
 Am    G         F                C       G
Что я последний ублюдок, и уйдешь, и уйдешь
     C     C/B     Am             Dm           G
Я продал бы дьяволу душу, я продал бы дьяволу честь,
   Am    G         F                C          G
Чтобы стать чуть чуть лучше чем я есть, чем я есть.

Припев:
    F              Fm                 C               Am
И видит ночь в моих глазах, всего лишь боль, всего лишь страх
  F                Fm         C   C/B Am
Я так боюсь в ней что-то упустить.
  F            Fm         C           Am
Сегодня утром тает снег, и я обычный человек
 F                Fm         C   C/B Am
Проснулся чтобы что-то изменить  
 F                Fm           C
Проснулся чтобы что-то изменить. 

Комментарий автора:

Первый и второй куплет играются как вступление. В 3-ем куплете играется боем аккордами без баррэ.
Бой в припеве: V ^V ^V(удар вниз приходится на сильную долю), но можно играть и 6-кой. 
 
 
Свернуть Распечатать

Видео