Валерий Кипелов - Бесы, аккорды

Прокрутка
Тональность
Шрифт
100
Строй гитары: Drop D
 
Intro:		
[E------------------------------------------------------------------------
B------------------------------------------------------------------------
G------------------------------------------------------------------------
D--2----------------------------------1----------------------------------
A--2----------------------------------1--------------------0------------ Вместо 0 можно взять флажолет
D--2--2-2-2-2-2-2-2-2--5--4--2--------1--1-1-1-1-1-1-1-1----------------- на 6-й струне (2-й лад)

E------------------------------------------------------------------------
B------------------------------------------------------------------------
G------------------------------------------------------------------------
D--2----------------------------------1----------------------------------
A--2----------------------------------1-------------------2-3-2-0--------
D--2--2-2-2-2-2-2-2--4--5--4--2-------1--1-1-1-1-1-1-1-1----------5-4----

E-------------------------------------------------------------------------
B-------------------------------------------------------------------------
G-------------------------------------------------------------------------
D--9--------9----7--------7----5--------5-----7----7----7----7------------
A--9--------9----7--------7----5--------5-----7----7----7----7------------
D--9--xxxx--9----7--xxxx--7----5--xxxx--5---7-7--7-7--7-7--7-7------------

E--------------------------------------------------
B--------------------------------------------------
G--------------------------------------------------
D--9--------9----7--------7----5--------5---7------
A--9--------9----7--------7----5--------5---7------
D--9--xxxx--9----7--xxxx--7----5--xxxx--5---7------

E---------------------------------------------------------------------
B---------------------------------------------------------------------
G---------------------------2--3--2--0--------------------------------
D--2--------2--------2------------------3--2--------------------------
A--2--------2--------2------------------------------------------------
D--2--xxxx--2--xxxx--2------------------------------------------------]

Verse: Дай мне сойти c ума     Ведь c безумца и спроса нет
[E-------------------------------------------------------------------
B-------------------------------------------------------------------
G-------------------------------------------------------------------
D--0--xxx--0-0-2-3--------3--3--3---9--xxx--9-9-9-7--xxx--7-7-7-----
A--0--xxx--0-0-2-3--------3--3--3---9--xxx--9-9-9-7--xxx--7-7-7-----
D--0-------0-0-2-3---xxx--3--3--3---9--xxx--9-9-9-7--xxx--7-7-7-----]

 Дай мне хоть раз сломать   Этот слишком нормальный свет
[E-------------------------------------------------------------------
B-------------------------------------------------------------------
G-------------------------------------------------------------------
D--0-------0-0-2-3--------3--3--3---9--xxx--9-9-9----2----2---------
A--0-------0-0-2-3--------3--3--3---9--xxx--9-9-9----2----2---------
D--0-------0-0-2-3--------3--3--3---9--xxx--9-9-9----2----2---------]

 Здесь духотой гнетет Бесконечная страсть борьбы
[E---------------------------------------------------------------------
B---------------------------------------------------------------------
G--------------------------------------------5--xxx--5-5-5------------
D--3--xxx--3-3-4-5--xxx--5-5-5-8--xxx--8-8-8-5--xxx--5-5-5------------
A--3--xxx--3-3-4-5--xxx--5-5-5-8--xxx--8-8-8-3--xxx--3-3-3------------
D--3--xxx--3-3-4-5--xxx--5-5-5-8--xxx--8-8-8--------------------------]

 Воздух тягуч как мед  C каплей крови моей судьбы
[E---------------------------------------------------------------------
B---------------------------------------------------------------------
G----------------------------------------------5---3------------------
D--3--xxx--3-3-4-5--xxx--5-5-5-8--xxx--8-8-8---5---3------------------
A--3--xxx--3-3-4-5--xxx--5-5-5-8--xxx--8-8-8---3---1------------------
D--3--xxx--3-3-4-5--xxx--5-5-5-5--xxx--8-8-8--------------------------]

Chorus: 
  Бесы  Бесы все злей и зле - ей
  Бесы Бесы в душе   мое - e -
[E-------------------------------------------------------------------
B-------------------------------------------------------------------
G------------------------------7----------5----------3--------------
D--8--5------------------------7----------5------8---3--------------
A--8--5---4--3--4--3--1-1------5----------3------8---5--------------
D--8--5------------------------------------------8------------------]
 - еееееееееееееееееееееееееееееееееееееееееей
[E---------------------------------------------------------------------
B---------------------------------------------------------------------
G--------------------------------------------------2--3--2--0---------
D--0-------0-0-0-----------0-0-0---0-------0-0-0---------------3--2---
A--0-------0-0-0---0-------0-0-0---0-------0-0-0----------------------
D--0--xxx--0-0-0---0--xxx--0-0-0---0--xxx--0-0-0----------------------]

Verse II
Chorus

Solo:		    
     [E-------------------------------------------------------------
gtr1. B---10------------10-8---10----10------------10-8--6-10---8---
gtr2. G---10--10-----10-10-7---9-----10--10-----10-10-7--7--9---7---
      D-------10--10-10------------------10--10-10------------------
      A-----------10-------------------------10---------------------
      D-------------------------------------------------------------

    E---8------------8-----8--------------------------------------
    B---9--9---------9-11--8--------------------------------------
    G------10-----10---12-----------------------------------------
    D----------10-10----------------------------------------------
    A----------10-------------------------------------------------
    D-------------------------------------------------------------]

Verse III
Chorus
 
 

Видео