Виктор Цой - Бездельник #1, аккорды

Прокрутка
Тональность
Шрифт
100
Intro
   Bm7       B7sus4                     A Asus4 A   
e|-2-2-2--2--2-2--2-2--2-2-2--2-2--0----0--0--0-0- 
B|-3-3-3--3--5-3--5-3--5-3-3--5-3--2----2--3--3-2- 
G|-2-2-2--2--2-2--2-2--2-2-2--2-2--2----2--2--2-2- x3
D|-4-4-4--4--4-4--4-4--4-4-4--4-4--2----2--2--2-2- 
A|-2-2-2--2--2-2--2-2--2-2-2--2-2--0----0--0--0-0- 
E|------------------------------------------------ 

e|-2-2-2--2--2-2--2-2--2-2-2--2-2---/5--3--0^3-------- 
B|-3-3-3--3--5-3--5-3--5-3-3--5-3---/5--3--0^3--3/5-3- 
G|-2-2-2--2--2-2--2-2--2-2-2--2-2---------------2/4-2- 
D|-4-4-4--4--4-4--4-4--4-4-4--4-4--------------------- 
A|-2-2-2--2--2-2--2-2--2-2-2--2-2--------------------- 
E|---------------------------------------------------- 

Bm A
Гуляю.
D    A
Я один гуляю.
Bm    A    C#m      F#m
Что дальше делать, я не знаю.
Bm   A
Нет дома.
D    A
Никого нет дома.
Bm  A    C#m     F#m        C#m F#m
Я лишний, словно куча лома, y-y.

                  Bm            A
     Я бездельник, о-о, мама, мама,
                   C#m F#m
     Я бездельник, y-y...
                     Bm           A
     Я бездельник, о-о, мама, мама. 

Bm A

Bm A
В толпе я
D    A
Как иголка в сене.
Bm    A    C#m      F#m
Я снова человек без цели.
Bm A
Болтаюсь,
D    A
Целый день гуляю.
Bm    A    C#m      F#m
Не знаю, я ничего не знаю, y-y.
 
 
Свернуть Распечатать

Видео