Виктор Цой - Песня без слов, аккорды

Прокрутка
Тональность
Шрифт
100
Вступление.
 
 Держать палец на струнах 12ого лада,или глушить.
E|-----0-0------0-0-----0-0------0-0-|
B|-0-0-----0000-----0-0-----0000-----|

Бас
   Am
E|-5-5-5-5-5-5-5-5-5-5-5-5-5-5-5-5-|
   G
E|-3-3-3-3-3-3-3-3-3-3-3-3-3-3-3-3-|
   Dm
E|-10-10-10-10-10-10-10-10-10-10-10-10-10-10-10-10-|
   E          F
E|-0-0-0-0-0-0-0-0-1-1-1-1-1-1-1-1-|
                    Вставка
    Am                    G
G|--7--5--3-3-2-3-2---7--5--3-3-2-3-0--|
D|-------------------------------------|

 Dm                  E F
G|-7--5--3-3-2-3-2---7--5--3-3-2-3-2---|
D|-----------------------------------2-|

 Am                  G
Песня без слов ночь без сна всё в свое время зима и весна
 Dm
Каждой звезде свой неба кусок
 E       F
Каждому морю дождя глоток

Каждому яблоку место упасть каждому вору возможность украсть
Каждой собаке палку и кости
Каждому волку зубы и злость

      Припев
 E         Am
Снова за окнами белый день
 E        Am
День вызывает меня на бой
  G       F
И я чувствую закрывая глаза
 E         F
Весь мир идёт на меня войной

Если есть стадо есть пастух если есть тело должен быть дух
Если есть шаг должен быть след
Если есть тьма должен быть свет
Сможешь ли ты изменить этот мир сможешь ли ты принять как есть
Всать и выйти из ряда вон
Сесть на электрический стул или трон

Припев

Соло:
G|-----------------------------------|
D|--------------------------------5--|
A|-0-7-0-5-7--0-7-0-5-0-3-0-3----5-7-|
E|----------------------------3------|

G|------------------------------------------0-|
D|----------------------------------------0---|
A|--0-7-7-0-5--0-5-5-0-3--0-3-2--0-2----2-----|
E|----------------------------------1---------|
 
 
Свернуть Распечатать

Видео