Виктор Цой - Пачка сигарет, аккорды

Прокрутка
Тональность
Шрифт
100
Intro
E|-----7-5-0---3-0-----5-------|-7-5-0------3-0--------5-------|
B|-0---------1-----1-3---3-1-0-|-------1--------1-3------3-1-0-|
G|---5-------------------------|-------------------------------|
D|-----------------------------|-------------------------------|
A|-----------------------------|-------------------------------|
E|-----------------------------|-------------------------------|
 
                             Harm.---------------|
E|-----7-5-0---3-0-----5-------|-7-5-0----12-------------12-12-|
B|-0---------1-----1-3---3-1-0-|-------1-----12-------12----12-|
G|---5-------------------------|----------------12-12-------12-|
D|-----------------------------|-------------------------------|
A|-----------------------------|-------------------------------|
E|-----------------------------|-------------------------------|

Припев:
E|---------12------------------12-----------------|
B|----13------13----13----13------13----13----15--|
G|-14------------14----12------------12----14-----|
D|------------------------------------------------|
A|------------------------------------------------|
E|------------------------------------------------|

E|--14------------------12-----------|
B|-----15----15----12------12-----12-|
G|--------14----12-------------12----|
D|-----------------------------------|
A|-----------------------------------|
E|-----------------------------------|

Solo
E|-10-8-7-8-10--10-8-7-8-10--10-8-7-8-10-8--8-8-7---7--8--10--|
B|------------------------------------------------------------|
G|----------------------------------------------------------|
D|----------------------------------------------------------|
A|------------------------------------------------------------|
E|------------------------------------------------------------|

E|-12-10-8-10-12-|
B|---------------|
G|---------------|
D|---------------|
A|---------------|
E|---------------|

E|-12-10-8-10-12--12-10-8-10-12-10--10-8-7--|
B|------------------------------------------|
G|------------------------------------------|
D|------------------------------------------|
A|------------------------------------------|
E|------------------------------------------|

E|--7--8--10--10-8-7-8-10--10-8-7-8-10-10-8-7-8-10-8--8--7-|
B|---------------------------------------------------------|
G|---------------------------------------------------------|
D|---------------------------------------------------------|
A|---------------------------------------------------------|
E|---------------------------------------------------------|
 
 
Свернуть Распечатать

Видео