Виктор Цой - Красно-Желтые Дни, аккорды

Прокрутка
Тональность
Шрифт
100
 Перед вступлением:
D|--------------------3--2-----2-3-2--------|
A|--0-----0-----3-----------5------------3--|
E|-----0-----3-----3------------------3-----|

 Вступление+Соло в куплете:
e|--------------------------------|-----------------2--------------|
B|-----------------3-----2--------|-----3-----3-----------5-----3--|
G|----4-----4------------------4--|--2-----2-----2-----2-----2-----|
D|-4-----4-----4-----4-----4------|--------------------------------|
A|--------------------------------|--------------------------------|
E|--------------------------------|--------------------------------|

e|-----------------7-----5------------10------10~~~~~----------------|
B|-----8-----8---------------------10------10~~~~~~~~----------------|
G|--7-----7-----7-----7-----7----------------------------------------|
D|-------------------------------------------------------------------|
A|-------------------------------------------------------------------|
E|-------------------------------------------------------------------|
 
   Bm                     G
 Застоялся мой поезд в депо.
 A                  G A
 Снова я уезжаю. Пора...
   Bm                        G
 На пороге ветер заждался меня.
 A                           G A
 На пороге осень - моя сестра.
 
          Bm      F#m          Bm
         После красно-желтых дней
           D        A            D
         Начнется и кончится зима.
          G       F#m      Em
         Горе ты мое от ума,
          D              A       D
         Не печалься, гляди веселей.
         И я вернусь домой
         Со щитом, а, может быть, на щите,
         В серебре, а, может быть, в нищете,
         Но как можно скорей.
 
 Расскажи мне о тех, кто устал
 От безжалостных уличных драм
 И о храме из разбитых сердец
 И о тех, кто идет в этот храм.
 
         После красно-желтых дней
         Начнется и кончится зима.
         Горе ты мое от ума,
         Не печалься, гляди веселей.
         И я вернусь домой
         Со щитом, а, может быть, на щите,
         В серебре, а, может быть, в нищете,
         Но как можно скорей.
 
 А мне приснилось: миром правит любовь,
 А мне приснилось: миром правит мечта.
 И над этим прекрасно горит звезда,
 Я проснулся и понял - беда...
 
         После красно-желтых дней
         Начнется и кончится зима.
         Горе ты мое от ума,
         Не печалься, гляди веселей.
         И я вернусь домой
         Со щитом, а, может быть, на щите,
         В серебре, а, может быть, в нищете,
         Но как можно скорей.
 
 
Свернуть Распечатать

Видео