Виктор Цой - Когда твоя девушка больна, аккорды

Прокрутка
Тональность
Шрифт
100
Вступление:
1|3-2-3-2-3-2-3-2-0--------------------------------------------|
2|3-3-3-3-3-3-3-3-1--------------------------------------------|
3|0-2-0-2-0-2-0-2-0--------------------------------------------|
4|0-0-0-0-0-0-0-0-2-----5-4-2-0---------------2-0-------------2|
A|----------------3-3-3---------3-2-0^2---3-3-----3-2-0-2-0^2--|
6|3---3---3---3-------------------------3----------------------|

 E |---------------------------0-----0---------2-----2-----3-2-3-|
 B |-------------------------1-----1-----1---3-----3-----3-3-3-3-|
 G |-----------------------0-----0-----0---2-----2-----2---0-2-0-|
 D |-----5-4-2-0-------------------------------------------0-0-0-|
 A |-3-3---------3-2-0^2-----------------------------------------|
 E |---------------------3---------------------------------3---3-|

бас
куплет:
     G      Em       C       D  
 G |-----------------------------------|
 D |---------------------------0-0-0-0-|
 A |-------------------3-3-3-3---------|
 E |---3-3-3-3-0-0-0-0-----------------|

 G        Em 
День как день,
       C           D 
Только ты почему-то грустишь.
    G        Em 
И вокруг все поют,
       C          D 
Только ты один молчишь.
Потерял аппетит
И не хочешь сходить в Кино.
Ты идешь в магазин,
Чтобы купить вино.

 C                D 
Солнце светит, и растет трава,
     G            Em  D 
Но тебе она не нужна.
 C             D 
Все не так, и все не то,
  G                  E  C  D  C 
Когда твоя девушка больна,
  G                  E   C  D  C 
Когда твоя девушка больна,
 D           G 
Когда больна...

Ты идешь в магазин,
Головою поник,
Как будто иссяк
Чистый горный родник.
Она где-то лежит,
Ест мед и пьет аспирин,
И вот ты идешь
На вечеринку один.

Солнце светит, и растет трава,
Но тебе она не нужна.
Все не так, и все не то,
Когда твоя девушка больна.
На вечеринку один,
Когда твоя девушка больна.
Когда твоя девушка больна.
Когда твоя девушка больна.
 
 
Свернуть Распечатать

Видео