Виктор Цой - Звезда по имени Солнце (tab), аккорды

Прокрутка
Тональность
Шрифт
100
e|------------------------------------------------------------------------------------------|------------|-------=||
b|--1-1-------------------------------------------------------------------------------------|------------|-------=||
g|--------2----------------------0-0----0-2-------------------------------------------------|------------|-------=||
d|-----------------2-2-2-----2-2------2-----2--------2-2-0-0--0-0-2-0-----0-0--0-0-0-2-0----|------------|-------=||
a|-----------------------------------------------------------3------------------------------|------------|-------=||
e|------------------------------------------------------------------------------------------|------------|-------=||

e|-------------------------------------------------------------------------------------------------------------------|------------|-------=||
b|--1-1--------------------------------------------------------------------------------------------------------------|------------|-------=||
g|------2-----------0---------0-0-0-0--2----------------------------------------------------------------------2------|------------|-------=||
d|--------2-2-2-2-2---2---2-2------------2----2-2--0-0-0-0-2-0------0-0-0-0-0-0-2-0----0-0-0---0-0---0--0-0-0---2----|------------|-------=||
a|-------------------------------------------------------------------------------------------3-----3--------------0--|------------|-------=||
e|-------------------------------------------------------------------------------------------------------------------|------------|-------=||

-_-_-_-_-_-_-_-_-_-_-_-_-_-_-_-_-_-_-_-_-_-

e|-----------------------------------------------------------------------------------------|------------|-------=||
b|--1--------------------------------------------------------------------------------------|------------|-------=||
g|----2-------0----0-0-0-0-0-0-2-----------------------2----------0---------0-0-0--0-0-2---|------------|-------=||
d|------2-2-2---2----------------2---0-0--0-0-0-2-0------2-2--2-2---2---2-2--------------2-|------------|-------=||
a|-----------------------------------------------------------------------------------------|------------|-------=||
e|-----------------------------------------------------------------------------------------|------------|-------=||

e|-----------------------------------------------------------------------------------------|------------|-------=||
b|-----------------------------------------------------------------------------------------|------------|-------=||
g|--------------------------------------------------------------------------------2--------|------------|-------=||
d|--2-2-0-0-0-0-0-0--2-0-----2-2-0-0-0--0-0-0-2-0------0---0-0----0-0---0---0-0-0---2------|------------|-------=||
a|-------------------------------------------------------3------3-----3---------------0----|------------|-------=||
e|-----------------------------------------------------------------------------------------|------------|-------=||

-_-_-_-_-_-_-_-_-_-_-_-_-_-_-_-_-_-_-_-_-_-

e|-----------------------------------------------------------------------------------------------------------------------|------------|-------=||
b|----1-------------------------------------------------------------------------------------------1-1--------------------|------------|-------=||
g|-----2------------0------------0--0-0-0-0-2---------------------------------------------------------2-----------0-0----|------------|-------=||
d|--2----2-2-2-2-2----2-----2-2---------------2----2-2-0-0-0-0-0--2-0----2-2-0--0-0-0-0--2-0------------2-2-2-2-2-----2--|------------|-------=||
a|-----------------------------------------------------------------------------------------------------------------------|------------|-------=||
e|-----------------------------------------------------------------------------------------------------------------------|------------|-------=||

e|----------------------------------------------------------------------------------------------------------|------------|-------=||
b|----------------------------------------------------------------------------------------------------------|------------|-------=||
g|------0-0-0-0-0-0-2---------------------------------------------------------------------------------2-----|------------|-------=||
d|--2-2---------------2-------2-2-0-0-0-0-0-0-2-0----2-2-0-0--0-0--2-0------0---0-0---0-0---0---0-0-0---2---|------------|-------=||
a|----------------------------------------------------------------------------3-----3-----3---------------0-|------------|-------=||
e|----------------------------------------------------------------------------------------------------------|------------|-------=||
 
 
Свернуть Распечатать

Видео