Виктор Цой - Кукушка (табулатура), аккорды

Прокрутка
Тональность
Шрифт
100
   Am        C         G                 Am        C         G
e|-----0---|-0---0-3-|-------|---------|-----0---|-0---0-3-|-------|---------|
b|---1---1-|-1-3-----|-3-1-0-|-1-0-----|---1---1-|-1-3-----|-3-1-0-|-1-0-1-3-|
g|-2-------|-0-------|-0-----|-----2-0-|-2-------|-0-------|-0-----|---------|
d|-2-------|---------|-0-----|---------|-2-------|---------|-0-----|---------|
a|-0-------|-3-------|-------|---------|-0-------|-3-------|-------|---------|
e|---------|---------|-3-----|---------|---------|---------|-3-----|---------|

   Am        C         G                 Am        C         G
e|-----0---|-0---0-3-|-------|---------|-----0---|-0---0-3-|-------|---0-5---|
b|---1---1-|-1-3-----|-3-1-0-|-1-0-----|---1---1-|-1-3-----|-3-1-0-|-3-------|
g|-2-------|-0-------|-0-----|-----2-0-|-2-------|-0-------|-0-----|---------|
d|-2-------|---------|-0-----|---------|-2-------|---------|-0-----|---------|
a|-0-------|-3-------|-------|---------|-0-------|-3-------|-------|---------|
e|---------|---------|-3-----|---------|---------|---------|-3-----|---------|

Песен, еще не написанных, сколько? Скажи, кукушка, Пропой.
e|---------------5---------------------------------------|
b|-5-5-3-5-5-3-5---5-5---5-5---3---6-5-(3-5)-------------|
g|---------------------5-----5---4-----------------------|

В городе мне жить или на выселках? Камнем лежать. Или гореть звездой? Звездой...
e|-------------------5-----------------------------------|
b|-5-5-5-3-5-5-5-3-5---5-5-5-3-5-5-5-3-5---3---6-5-(3-5)-|
g|---------------------------------------5---4-----------|

Припев:
Солнце мое, взгляни на меня: |Моя ладонь превратилась в кулак.
e|---------------------------|----------------------------|
b|---------------6-5---------|----------------------------|
g|-4-4-4-5-2-2-2-------------|-4-4-4-5-2-2-2-2-5-2--------|

И если есть порох, дай огня. |Вот так. |
e|---------------------------|---------|
b|---------------6-5---------|---------|
g|-4-4-4-4-5-2-2-------------|-5-2-----|

   Am        C         G                 Am        C         G
e|-----0---|-0---0-3-|-------|---------|-----0---|-0---0-3-|-------|---0-5---|
b|---1---1-|-1-3-----|-3-1-0-|-1-0-----|---1---1-|-1-3-----|-3-1-0-|-3-------|
g|-2-------|-0-------|-0-----|-----2-0-|-2-------|-0-------|-0-----|---------|
d|-2-------|---------|-0-----|---------|-2-------|---------|-0-----|---------|
a|-0-------|-3-------|-------|---------|-0-------|-3-------|-------|---------|
e|---------|---------|-3-----|---------|---------|---------|-3-----|---------|
 
 
Свернуть Распечатать

Видео