Виктор Цой - Кукушка (табулатура), аккорды

Прокрутка
Тональность
Шрифт
100
e|-----0---0--0-3---------------------|
b|---1---1--3-----3--1-0---1-0--------|
g|-2---------------------------2-0-2--|
D|------------------------------------| 
A|------------------------------------|
E|------------------------------------|

e|-----0---0--0-3---------------------|
b|---1---1--3-----3--1-0---1-0-1-3----|
g|---------------------------------2--|
D|------------------------------------| 
A|------------------------------------|
E|------------------------------------|

e|-----0---0--0-3---------------------|
b|---1---1--3-----3--1-0---1-0--------|
g|-----------------------------2-0-2--|
D|------------------------------------| 
A|------------------------------------|
E|------------------------------------|

e|-----0---0--0-3-----------0-5-------|
b|---1---1--3-----3--1-0---1----------|
g|------------------------------------|
D|------------------------------------| 
A|------------------------------------|
E|------------------------------------|
 
 
Свернуть Распечатать

Видео