Виктор Цой - Ночь, аккорды

Прокрутка
Тональность
Шрифт
100
Вступление:
E|---------------------------------------------------------|
B|---------------------------------------------------------|
G|----------0--0----------0--0----------0--0----------0--0-|
D|----5-------------4--------------------------------------|
A|--3---3-3-------2---2-2---------5-------------5----------|
E|------------------------------3---3-3-------3---3-3------|

E|------------0-------------0------------------------------|
B|-----------0-------------0-------------------------------|
G|----------0--0----------0--0----------0--0----------0--0-|
D|----5-------------4--------------------------------------|
A|--3---3-3-------2---2-2---------5-------------5----------|
E|------------------------------3---3-3-------3---3-3------|
  
           C                  Bm        G
За окнами солнце, за окнами свет – это день,
      C      Bm       G
Но а я всегда любил ночь.
       Bb  C             Em
И это моё дело – любить ночь,
       Bb  C              G
И это моё право – уйти в тень.

Проигрыш: C | D6 | G | G  } x2

         C                     Bm       G
Я люблю ночь за то, что в ней меньше машин,
         C       Bm            G
Я люблю дым и пепел своих папирос.
         Bb C                        Em
Я люблю кухни за то, что они хранят тайны,
          Bb  C                       G
Я люблю свой дом, но вряд ли это всерьёз.

Припев:
       C               D6
И эта ночь, и её электрический свет
  G
Бьёт мне в глаза.
       C               D6
И эта ночь, и её электрический дождь
  G
Бьёт мне в окно.
       C               D6
И эта ночь, и её электрический голос
 G              Em
Манит меня к себе.
         C               Cm
И я не знаю, как мне прожить
  D        G
Следующий день.

Проигрыш: C | D6 | G | G }x4  

    C               Bm              G
Я один, но это не значит, что я одинок.
            C            Bm        G
Мой магнитофон хрипит о радостях дня.
              Bb  C                         Em
Я помню, что завтра меня ждёт несколько встреч,
            Bb  C            G
И кофе в известном кафе согреет меня.

Припев: 
       C               D6
И эта ночь, и её электрический свет
  G
Бьёт мне в глаза.
       C               D6
И эта ночь, и её электрический дождь
  G
Бьёт мне в окно.
       C               D6
И эта ночь, и её электрический голос
 G              Em
Манит меня к себе.
         C               Cm
И я не знаю, как мне прожить
  D        G
Следующий день.

       C               D6
И эта ночь, и её электрический свет
  G
Бьёт мне в глаза.
       C               D6
И эта ночь, и её электрический дождь
  G
Бьёт мне в окно.
       C               D6
И эта ночь, и её электрический голос
 G              Em
Манит меня к себе.
         C               Cm
И я не знаю, как мне прожить
  D        G
Следующий день.

Комментарий автора:

Вместо D6 можно играть Bm7 (x2x2x2)
 
 
Свернуть Распечатать

Видео