Виктор Цой - Спокойная ночь, аккорды новинка

Прокрутка
Тональность
Шрифт
100
Intro solo:
E||--------------------------------|-----------------------------------------|
B||--------------------------------|-----------------------------------------|
G||----------------------------0---|-----------------------------------------|
D||-------------------------5---5-5|-------------------------------—--—--—---|
A||-----------3--3--3--3--3--------|---3--3--3--3--3--2--2--2--5--5--5--5--5-|
E||--5--5--5-----------------------|-----------------------------------------|
----------------------------||
----------------------------||
----------------------------||
-0--------------------------||
---5--5--3----2--3--3-------||
----------------------------||
Am Am7 G Dm Dm7 Dm6

    Am            Am7               G Gadd9
  Крыши домов дрожат под тяжестью дней,
     Dm          Dm7   Am      Am7
  Небесный пастух   пасет облака,
   Am               Am7          G Gadd9
  Город стреляет в ночь дробью огней,
      Dm         Dm7     Am        Am7
  Но ночь сильней,  ее власть велика.

Припев:
      F                 E
     Тем, кто ложится спать -
                  Am Am7
     Спокойного сна.
  F C           Am  Am7
     Спокойная ночь.
      F                 E
     Тем, кто ложится спать -
                  Am Am7
     Спокойного сна.
  F C           Am  
     Спокойная ночь.

Am Am7 G Dm Dm7 Dm6

    Am            Am7               G Gadd9
  Я ждал это время, и вот это время пришло,
     Dm          Dm7   Am        Am7
  Те, кто молчал,  перестали молчать.
   Am               Am7           G Gadd9
  Те, кому нечего ждать, садятся в седло,
     Dm          Dm7   Am     Am7
  Их не догнать, уже не догнать.

Припев:
      F                 E
     Тем, кто ложится спать -
                  Am Am7
     Спокойного сна.
  F C           Am  Am7
     Спокойная ночь.
      F                 E
     Тем, кто ложится спать -
                  Am Am7
     Спокойного сна.
  F C           Am  
     Спокойная ночь.

Am Am7 G Dm Dm7 Dm6

    Am            Am7               G Gadd9
  Соседи приходят, им слышится стук копыт,
     Dm          Dm7   Am       Am7
  Мешает уснуть,  тревожит их сон.
   Am               Am7           G Gadd9
  Те, кому нечего ждать, отправляются в путь
     Dm          Dm7   Am       Am7
  Те, кто спасен,  те, кто спасен.

Припев:
      F                 E
     Тем, кто ложится спать -
                  Am Am7
     Спокойного сна.
  F C           Am  Am7
     Спокойная ночь.
      F                 E
     Тем, кто ложится спать -
                  Am Am7
     Спокойного сна.
  F C           Am  
     Спокойная ночь.

Am Am7 G Dm Dm7 Dm6 

Solo of the end:
      F     Em      Am         F      C     Cmaj    Am
E||--------------------------------------------------------------------------|
B||--------------------------------------------------------------------------|
G||--------------------------------------------------------------------------|
D||----------2----------0----5-------5----0--------0-2-0------0-2-0-—--—--—--|
A||----3-------3--2-2-3--2-3------0----3-----2-2-3------3-2-3----------------|
E||--1---1-0-------------------1---------------------------------------------|
      F     Em      Am              F    C  Cmaj  Am
E|----------------------------------------------------------------------||
B|--------8-6-5------------------8-----8--------------5-----------8-6-5-||
G|-----2---------4-4--5--7--4--5-----2---5-7--4-4-5-7---7-5-4-5-7-------||
D|---3-----------------------------3------------------------------------||
A|----------------------------------------------------------------------||
E|----------------------------------------------------------------------||   

Комментарий автора:

Можно играть шестеркой или же цоевским 
 
 
Свернуть Распечатать

Видео