Виктор Цой - Бездельник #1, аккорды

Прокрутка
Тональность
Шрифт
100
Проигрыш:
Bm7 --->B7sus4  
A  --->Asus4 (в начале песни связка в эти 4 аккорда играется 4 раза)
          потом сразу мини соляк
e|-7-9-7--|--------|--------|
B|--------|-9-7-9-7|9-------|

в проигыше во всех аккордах лучше играть по нижним струнам, ставятся аккорды Bm7 А 
и в такт ставиться мизинец.  

 Bm7 (барэ 2-й лад)
e|--------|---0----|--------|--------|
B|--------|---0----|---0----|--------|
G|--------|---0----|--------|--------|
D|--------|---0----|--------|---0----|
A|--------|---0----|--------|--------|
E|--------|---0----|--------|--------|

 B7sus4 (тоже что и Bm7 , но добовляем мизинец, ставим на 2 струну 5 лад )                                                              пятого лада )
e|--------|---0----|--------|--------|--------|
B|--------|---0----|---0----|--------|----0---|
G|--------|---0----|--------|--------|--------|
D|--------|---0----|--------|---0----|--------|
A|--------|---0----|--------|--------|--------|
E|--------|---0----|--------|--------|--------|


A                       Asus4  
e|--------|--------|  e|--------|--------|--------|
B|--------|---0----|  B|--------|---0----|---0----|
G|--------|---0----|  G|--------|---0----|--------|
D|--------|---0----|  D|--------|---0----|--------|
A|--------|--------|  A|--------|--------|--------|
E|--------|--------|  E|--------|--------|--------|

Bm   A  D    A 
  Гуляю, я один гуляю.
Bm     A    C#       F#m
  Что дальше, делать я не знаю.
Bm     A  D     A
  Нет дома никого нет дома.
Bm   A    C#       F#m      C#F#m
  Я лишний словно куча лома у-у
      
                  Bm      A
     Я бездельник о мама мама.
                  C#F#m
     Я бездельник у-у
                  Bm        A   / Bm A Bm A / 
     Я бездельник о-о мама мама.

Проигрыш

Bm      A   D      A
  В толпе я, как иголка в сене.
Bm    A  C#    F#m
  Я снова человек без цели.
Bm    A   D        A
  Болтаюсь, целый день гуляю,
Bm     A C#       F#m       C#F#m
  Не знаю, я ничего не знаю у-у.

                  Bm      A
     Я бездельник о мама мама.
                  C#F#m
     Я бездельник у-у
                  Bm        A   / Bm A Bm A Bm /
     Я бездельник о-о мама мама.

Проигрыш
 
 
Свернуть Распечатать

Видео