Виктор Цой - Когда твоя девушка больна, аккорды

Прокрутка
Тональность
Шрифт
100
Вступление: G | D G | D G | D | G | D

   C               D               G             Em
e|--------------------------------------------------|
B|--------------------------------------------------|
G|-------------0------------------------------------|
D|-----------------4---2---0------------------------|
A|-----3---3-------------------3---2---------0-2----|
E|-----------------------------------------------3--|

   C               D               G             Em
e|-------------------------------------------------|
B|-------------------------------------------------|
G|-------------------------------------------------|
D|-------------2---0-----------------------------2-|
A|-----3---3-----------3---2---0---2---------0-2---|
E|-------------------------------------------------|

   C               D               
e|-----0-----0---------2-----2---2-|
B|---1-----1-----1---3-----3---3---|
G|-0-----0-----0---2-----2---------|
D|---------------------------------|
A|---------------------------------|
E|---------------------------------|

G | D G | D G | D | G | D

G          Em           C                D
 День как день, только ты почему-то грустишь.
G               Em C                   D
 И вокруг все поют, только ты один молчишь.
G             Em       C                  D
 Потерял аппетит и не хочешь сходить в кино.
G                Em    C             D
 Ты идешь в магазин, чтобы купить вино.

Припев:
	 C                  D
	Солнце светит и растет трава,
	      G            Em 
	Но тебе она не нужна.
	  C            D
	Все не так и все не то,

	    G                  Em  |
	Когда твоя девушка больна. |
	C     D                    |
	М-м-м-м.                   | x2 

	        G | D G | D G | D | G | D
	Когда больна.

G          Em           C        D
 Ты идешь в магазин, головою поник,
G          Em           C        D
 Как будто иссяк чистый горный родник.
G          Em           C        D
 Она где-то лежит, ест мед и пьет аспирин,
G          Em           C        D
 И вот ты идешь на вечеринку один.

Припев:
	 C                  D
	Солнце светит и растет трава,
	      G            Em 
	Но тебе она не нужна.
	  C            D
	Все не так и все не то,

	    G                  Em  |
	Когда твоя девушка больна, |
	C     D                    |
	На вечеринку один.         | x2 

	    G                  Em  |
	Когда твоя девушка больна. |
	C     D                    |
	М-м-м-м.                   | x2 

	        G | D G | D G | D | G | D
	Когда больна.

Проигрыш: С | C | D | D
          G | G | Em | Em
          С | C | D | D
          G | D G | D G | D | G | D

Кода:
   C               D               G             Em
e|--------------------------------------------------|
B|--------------------------------------------------|
G|-------------0------------------------------------|
D|-----------------4---2---0------------------------|
A|-----3---3-------------------3---2---------0-2----|
E|-----------------------------------------------3--|

   C               D               G             Em
e|--------------------------------------------------|
B|--------------------------------------------------|
G|--------------------------------------------------|
D|-------------2---0-----------------------------2--|
A|-----3---3-----------3---2---0---2---------0-2----|
E|--------------------------------------------------|

   C               D               G             Em
e|--------------------------------------------------|
B|--------------------------------------------------|
G|-------------0---------------------------------0--|
D|-----------------4---2---0-------0-----------0----|
A|-----3---3-------------------3-------------2------|
E|--------------------------------------------------|

   C               D               G             Em
e|-----0-----0---------2-----2---2-3---------5-7-3--|
B|---1-----1-----1---3-----3---3--------------------|
G|-0-----0-----0---2-----2--------------------------|
D|--------------------------------------------------|
A|--------------------------------------------------|
E|--------------------------------------------------|

Комментарий автора:

Кода играется дважды, но второй раз в последней табулатуре аккорды G и Em звучат без соло.
 
 
Свернуть Распечатать

Аппликатуры аккордов

Аккорд GАккорд DАккорд CАккорд Em
fomkafomka
автор подбора аккордов
721,786 1,772 21.07.2006

Видео