Виктор Цой - Мои друзья, аккорды

Прокрутка
Тональность
Шрифт
100
Intro: Em Bm Am Em

  Em         G Cm   Bm      Am  Cm    Em
  Пришел домой, и как всегда опять один.
              G Cm Bm      Am    Cm      D
  Мой дом пустой, но зазвонит вдруг телефон,
              Am              Cm   D    Bm Cm
  И будут в дверь стучать и с улицы кричать,
               Bm     Cm            D         Em Em Bm Am Em
  Что хватит спать и пьяный голос скажет: “Дай пожрать”.

     Em         D                       Em
     Мои друзья всегда идут по жизни маршем,
            D                         Bm Am Em Em Bm Am Em
     И остановки только у пивных ларько-о-ов.

  Em             G  Cm   Bm     Am   Cm   Em
  Мой дом был пуст, теперь народу там полно.
             G Cm Bm      Am     Cm     D
  В который раз, мои друзья там пьют вино.
            Am      Cm    D     Bm Cm       Bm
  И кто-то занял туалет уже давно, разбив окно,
      Cm         D           Em Em Bm Am Em
  А мне уже признаться все равно.

     Em         D                       Em
     Мои друзья всегда идут по жизни маршем,
            D                         Bm Am Em Em Bm Am Em
     И остановки только у пивных ларьков.

  Em       G  Cm       Bm   Am    Cm    Em
  А я смеюсь  хоть мне и не всегда смешно, 
            G  Cm    Bm     Am   Cm     
  И очень злюсь, когда мне говорят 
        D              Am            Cm
  Что жить вот так как я сейчас нельзя.
   D      Bm Cm          Bm    Cm        D    Em Em Bm Am Em
  Но почему? Ведь я живу, на это не ответить никому.

     Em         D                       Em
     Мои друзья всегда идут по жизни маршем,
            D                       Bm Am Em Em Bm Am Em
     И остановки только у пивных ларько-о-ов.

Комментарий автора:

После строчек 
И остановки только у пивных ларько-о-ов. 

Что хватит спать и пьяный голос скажет: “Дай пожрать”. 

играется: 
E||----------------------|------------------------|-------------------------| 
B||----------------------|------------------------|-------------------------| 
G||-----------5----------|---------4--------------|----------2--------------| 
D||-------5------5-------|-----4-----4------------|-----2------2------------| 
A||----------------------|------------------------|-------------------------| 
E||----------------------|------------------------|-------------------------| 

E||----------------------|----------0-------------|
B||----------------------|-----------0------------|
G||----------------------|------------0-----------|
D||-------5-4---2--------|---0---2----------------|
A||----------------------|----------2-------------|
E||----------------------|-----------0------------|
 
 
Свернуть Распечатать

Видео