Виктор Цой - Раньше в твоих глазах отражались костры, аккорды

Прокрутка
Тональность
Шрифт
100
Вступление:
  Em      Em/G      Bm7               Em       Em/G
E|-----------------|-----------------|-----------------|
B|-----------------|-----------------|-----------------|
G|-------0-------0-|-------0---------|-------0-------0-|
D|-----4-------4---|-----7---7-------|-----4-------4---|
A|---2-------2-----|---5-------5---5-|---2-------2-----|
E|-0-------3-------|-7-----------7---|-0-------3-------|

   Bm7              Em      Em/G       Bm7
E|-----------------|-----------------|-----------------|
B|-----------------|-----------------|-----------------|
G|-------0-----7---|-------0-------0-|-------0-------0-|
D|-----7---7-----0-|-----4-------4---|-----7-------7---|
A|---5-------5-----|---2-------2-----|---5-------5-----|
E|-7---------------|-0-------3-------|-7-------7-------|

   Em      Em/G     Bm7               Em  Em/G  Bm7
  Раньше в твоих глазах отражались костры
E|-----------------|-----------------|-----------------|-----------------|
B|-----------------|-----------------|-----------------|-----3-----3-----|
G|-------0-------0-|-------0---------|-------0-------0-|---0-----0---0---|
D|-----4-------4---|-----7---7-------|-----4-------4---|-------0-------0-|
A|---2-------2-----|---5-------5---5-|---2-------2-----|-2---------------|
E|-0-------3-------|-7-----------7---|-0-------3-------|-----------------|

  Em       Em/G       Bm7              Em   Em/G  Bm7
Теперь лишь настольная лампа рассеянный свет...
E|-----------------|-----------------|-----------------|-----------------|
B|-----------------|-----------------|-----------------|-----3-----3-----|
G|-------0-------0-|-------0---------|-------0-------0-|---0-----0---0---|
D|-----4-------4---|-----7---7-------|-----4-------4---|-------0-------0-|
A|---2-------2-----|---5-------5---5-|---2-------2-----|-2---------------|
E|-0-------3-------|-7-----------7---|-0-------3-------|-----------------|

   G                Bm7                Em     Em/G      Bm7
 Что-то проходит   мимо тебе       становится  не  по  себе
E|-----------------|-----------------|-----------------|-----------------|
B|-----------------|-----------------|-----------------|-----3-----3-----|
G|-------0---------|-------0---------|-------0-------0-|---0-----0---0---|
D|-----0---0-------|-----7---7-------|-----4-------4---|-------0-------0-|
A|---2-------2---2-|---5-------5---5-|---2-------2-----|-2---------------|
E|-3-----------3---|-7-----------7---|-0-------3-------|-----------------|

  Em       Em/G      Bm7               Em    Em/G  Bm7 ...
  Это был новый     день - в нем тебя нет...
E|-----------------|-----------------|-----------------|-----------------|
B|-----------------|-----------------|-----------------|-----3-----3-----|
G|-------0-------0-|-------0---------|-------0-------0-|---0-----0---0---|
D|-----4-------4---|-----7---7-------|-----4-------4---|-------0-------0-|
A|---2-------2-----|---5-------5---5-|---2-------2-----|-2---------------|
E|-0-------3-------|-7-----------7---|-0-------3-------|-----------------|

   Em      Em/G     Bm7               Em  Em/G  Bm7
  Раньше в твоих глазах отражалась ночь 
E|-----------------|-----------------|-----------------|-----------------|
B|-----------------|-----------------|-----------------|-----3-----3-----|
G|-------0-------0-|-------0---------|-------0-------0-|---0-----0---0---|
D|-----4-------4---|-----7---7-------|-----4-------4---|-------0-------0-|
A|---2-------2-----|---5-------5---5-|---2-------2-----|-2---------------|
E|-0-------3-------|-7-----------7---|-0-------3-------|-----------------|

  Em       Em/G       Bm7              Em   Em/G  Bm7
Теперь когда за окнами ночь - твои глаза спят
E|-----------------|-----------------|-----------------|-----------------|
B|-----------------|-----------------|-----------------|-----3-----3-----|
G|-------0-------0-|-------0---------|-------0-------0-|---0-----0---0---|
D|-----4-------4---|-----7---7-------|-----4-------4---|-------0-------0-|
A|---2-------2-----|---5-------5---5-|---2-------2-----|-2---------------|
E|-0-------3-------|-7-----------7---|-0-------3-------|-----------------|

   G                Bm7                Em     Em/G      Bm7
  И вот на рассвете ты не заметил как начался новый день
E|-----------------|-----------------|-----------------|-----------------|
B|-----------------|-----------------|-----------------|-----3-----3-----|
G|-------0---------|-------0---------|-------0-------0-|---0-----0---0---|
D|-----0---0-------|-----7---7-------|-----4-------4---|-------0-------0-|
A|---2-------2---2-|---5-------5---5-|---2-------2-----|-2---------------|
E|-3-----------3---|-7-----------7---|-0-------3-------|-----------------|

  Em       Em/G      Bm7               Em    Em/G  Bm7 
 Ты до сих пор в старом - там нет никаких преград...
E|-----------------|-----------------|-----------------|-----------------|
B|-----------------|-----------------|-----------------|-----3-----3-----|
G|-------0-------0-|-------0---------|-------0-------0-|---0-----0---0---|
D|-----4-------4---|-----7---7-------|-----4-------4---|-------0-------0-|
A|---2-------2-----|---5-------5---5-|---2-------2-----|-2---------------|
E|-0-------3-------|-7-----------7---|-0-------3-------|-----------------|
 
 
Свернуть Распечатать

Видео