Виктор Цой - Дальше, действовать будем мы, аккорды

Прокрутка
Тональность
Шрифт
100
Вступление:
Гитара:
E|---------------------------------------------------------------|
B|--------------0-1-3-3-3-3-3-1-0--1-1-1-1-1-1-0-1-3-3-3-3-3-1-0-|
G|-2-2-2-2-2-2---------------------------------------------------|
D|---------------------------------------------------------------|
A|---------------------------------------------------------------|
E|---------------------------------------------------------------|

Бас-гитара:
4|------------------------------
3|------------------------------
2|-0-0-2-0-3-0-2-0--------------
1|------------------3-3-3-3-3-3-

 Am             G                Am         G
Мы хотим видеть дальше, чем окна дома напротив,
 Am            F              Em
Мы хотим жить, мы живучи, как кошки.
 Am             G                Am        G
И вот мы пришли заявить о своих правах: "Да!"
 Am            F              Em
Слышишь шелест плащей - это мы...

ПРИПЕВ:
C      G                  Am  D
Дальше действовать будем мы!

E|----------------------|
B|-3-3-1--3-3-3-1-0-----|
G|----------------------|
D|----------------------|
A|----------------------|
E|----------------------|

 Am             G                Am        G
Мы родились в тесных квартирах новых районов,
 Am            F              Em
Мы потеряли невинность в боях за любовь.
 Am             G                Am         G
Нам уже стали тесны одежды, сшитые вами для нас одежды,
 Am            F              Em
И вот мы пришли сказать вам о том, что дальше...

ПРИПЕВ:
C      G                  Am  D
Дальше действовать будем мы!

E|----------------------|
B|-3-3-1--3-3-3-1-0-----|
G|----------------------|
D|----------------------|
A|----------------------|
E|----------------------|
 
 
Свернуть Распечатать

Видео