Виктор Цой - Игра, аккорды

Прокрутка
Тональность
Шрифт
100
Am                G               Am
Уже поздно, все спят, и тебе пора спать,
                  G             C
Завтра в восемь утра начнется игра,
                  G           Am G
Завтра солнце встанет в восемь утра.
Am                G               Am
Крепкий утренний чай, крепкий утренний лед.
                  G             C
Два из правил игры, а нарушишь - пропал,
                  G           Am G
Завтра утром ты будешь жалеть, что не спал.
 
Припев:
  Am                                    G
Но сейчас деревья стучат ветвями в стекла,
  Am                                    G
Ты можешь лечь и уснуть, и убить эту ночь.
  Am                                    G
Деревья, как звери, царапают темные стекла,
  Am                                    G
Пока еще не поздно лечь и уснуть в эту ночь.

Am                G               Am
Ни звонков, ни шагов, ни звона ключей,
                  G         C
Еле слышно часы у кровати стучат,
                  G        Am G
В этом доме все давно уже спят.
Am                G               Am
Только капля за каплей из крана вода,
                  G             C
Только капля за каплей из времени дни,
                  G           Am G
Ты пойдешь рубить лес, но увидишь лишь пни.
 
Припев:
  Am                                    G
Но сейчас деревья стучат ветвями в стекла,
  Am                                    G
Ты можешь лечь и уснуть, и убить эту ночь.
  Am                                    G
Деревья, как звери, царапают темные стекла,
  Am                                    G
Пока еще не поздно лечь и уснуть в эту ночь.

Комментарий автора:

куплеты играются перебором, припев - медленным боем   
Am                   G                   Am
1|-------------------|-------------------|-------------------|
2|--------1-3---1----|--0-1-0---0-1-0----|--------1-3---1----|
3|--2-----2-2---2----|--0-0-0---0-0-0----|--2-----2-2---2----|
4|----2-------2---2--|--------0-------0--|----2-------2---2--|
5|--0---0------------|--2----------------|--0---0------------|
6|-------------------|-------------------|-------------------|
   
   G                    C                  G
1|-------------------|-------------------|-------------------|
2|--0-1-0---0-1-0----|--1-----1-3---1----|--0-1-0---0-1-0----|
3|--0-0-0---0-0-0----|----0---0-0---0----|--0-0-0---0-0-0----|
4|--------0-------0--|------2-----2---2--|--------0-------0--|
5|--2----------------|--3----------------|--2----------------|
6|-------------------|-------------------|-------------------|

   Am
1|-------------------|-----------------|
2|--------1-3---1----|--0-1-0-1-0-1-0--|
3|--2-----2-2---2----|--0-0-0-0-0-0-0--|
4|----2-------2---2--|-----------------|
5|--0---0------------|--2--------------|
6|-------------------|-----------------|
 
 
Свернуть Распечатать

Видео