Виктор Цой - Атаман, аккорды

Прокрутка
Тональность
Шрифт
100
Соло в начале:
   Em                       Am            Bm     
G|----------------------------------------------------|
D|----9-7-9--------9-7-9-7--7------10-------9-7-9-7---|
A|-7--------7-7-7-------------10-9----7-9-9-----------|
E|----------------------------------------------------|

Вступление: Em Am Bm }x4 Em

 Am               Bm        Em  
Ох, смотри, не промахнись атаман,
 Am               Bm        Em  
Чтоб не дрогнула рука невзначай
 Am               Bm        Em  
Да смотри, не заряди холостых,
 Am               Bm     Em  
Да не думай о петле палача

   Am            Bm     Em 
А не то наступит ночь, ночь,
   Am            Bm     Em 
И уйдут от нас поля и леса
 C                    D      G  
Перестанут петь для нас небеса,
 Am           Bm       Em
И послушаем земли голоса

   Am            Bm    Em 
А потом наступит день, тень,
   Am            Bm    Em 
Каждый скажет: "То, что было - не помню"
 C                   D        G        
И пойдём мы под пастушью свирель,
 Am  Bm    Em   
Дружным стадом, на бойню

 Am                 Bm         Em       
Бог терпел - и нам велел потерпеть...

Проигрыш: Am Bm Em } несколько раз

 Am               Bm        Em  
Так смотри, не промахнись, атаман,
 Am               Bm        Em  
Чтоб не дрогнула рука невзначай
 Am               Bm        Em  
Да смотри, не заряди холостых,
 Am               Bm     Em  
Да не думай о петле палача

Окончание: Em Am Bm }x4  Em    

Комментарий автора:

Бой подобный тому что в песне "Перемен!".
___________________________
Альтернативный вариант соло в начале: (подобрал HardWeed14)

E|----------------------------------------------------|
B|----------------------------------------------------|
G|-----4-2-4-------4-2-4-------5----------------------|
D|---2-------2-2-2-------5-4-2---2-4-4-5-4-5----------|
A|----------------------------------------------------|
E|----------------------------------------------------|
 
 
Свернуть Распечатать

Аппликатуры аккордов

Аккорд EmАккорд AmАккорд BmАккорд CАккорд DАккорд G
MrMoDMrMoD
автор подбора аккордов
159,922 205 26.02.2014

Видео