Виктор Зинчук - Крестный Отец, аккорды

Прокрутка
Тональность
Шрифт
100
Крестный отец
E|----0-5-8-7-5-8-5-7-5-*1-3-0-*-0----
B|----------*------*---4-3------------
G|----------*------*------------------
D|----------*------*------------------
A|----------*------*------------------
E|----------*------*------------------

E|-----1-5-7----1-4-5------3-1-0-3-1-1-0-0-------
B|---3--------3----------1-----------------------
G|---------2-------------------1-2---------------
D|-----------------------------------------------
A|-----------------------------------------------
E|-----------------------------------------------

E|----5-5-4--4-4--4--7-5-3-------------------------
B|-6-5---5-8-5-3--3-6-3-5--------------------------
G|-------------------------------------------------
D|-------------------------------------------------
A|-------------------------------------------------
E|-------------------------------------------------
 
 
Свернуть Распечатать

Видео