Военные, армейские песни - Напиши мне, аккорды

Прокрутка
Тональность
Шрифт
100
Вступление:
E}---------------|-----------------|--------------|-------------|
B|---------1-----|-------1---------|------0-------|-------------|
G|-----2------2--|----2-----2------|---2-----2----|--0----------|
D|-2------------ |-3---------------|0-------------|--2------2-0-|
A|---------------|-----------------|--------------|-------------|
E|---------------|-----------------|--------------|-------------|

E|----------------|--1--------------|---------------|-1----------|
B|--------0h1-----|----------2------|-------0-------|-------0----|
G|----2--------2--|------2------2---|---2-----2-----|----0-----0-|
D|-2--------------|--3--------------|-0-------------|-2----------|
A|----------------|-----------------|---------------|------------|
E|----------------|-----------------|---------------|------------|

Куплет и припев:
Am                  F               Dm               E7
E|---------------|--------------|---------0h1-----|----------------|
B|--------1------|-------1------|--------------3--|---------3(0)---|
G|----2------2---|----2----2----|------2----------|------1-------1-|
D|---------------|--------------|--0--------------|----------------|
A|-0-------------|--------------|-----------------|----------------|
E|---------------|-1------------|-----------------|-0--------------|

Am
Ты попроще слова найди
F
И пожалуйста напиши,
Dm
Как шумят за окном дожди,
E7
И ноябрь в проводах звонит.

Припев:
 Am
 Напиши мне, что ночь темна,
 F
 Что устала ты слушать дождь.
 Dm
 Напиши мне, что ты одна,
 E7
 Напиши мне, что очень ждешь.
 
Проигрыш:
E|----------------|----------------|--------------|--------------|
B|-------0h1------|------0h1-------|-----0--------|--------------|
G|----2-------2---|---2--------2---|---2----2-----|------0-------|
D|-2--------------|-3--------------|-0------------|---2-----2--0-|
A|----------------|----------------|--------------|--------------|
E|----------------|----------------|--------------|--------------|

E|-0------------|--0--------------|-------------|--0-----------|
B|---------1----|-----------1-----|-------0-----|---------0----|
G|------2-----2-|-------2------2--|----2-----2--|------0-----0-|
D|-2------------|--3--------------|--0----------|--2-----------|
A|--------------|-----------------|-------------|--------------|
E|--------------|-----------------|-------------|--------------|

Am
А с деревьев листва летит
F
Как бесшумный ночной десант.
Dm
Этой ночью опять не спит
E7
И грустит о тебе солдат.

Припев:
 Am
 Напиши мне, что ночь темна,
 F
 Что устала ты слушать дождь.
 Dm
 Напиши мне, что ты одна,
 E7
 Напиши мне, что очень ждешь.
 
Проигрыш:
E|----------------|----------------|--------------|--------------|
B|-------0h1------|------0h1-------|-----0--------|--------------|
G|----2-------2---|---2--------2---|---2----2-----|------0-------|
D|-2--------------|-3--------------|-0------------|---2-----2--0-|
A|----------------|----------------|--------------|--------------|
E|----------------|----------------|--------------|--------------|

E|-0------------|--0--------------|-------------|--0-----------|
B|---------1----|-----------1-----|-------0-----|---------0----|
G|------2-----2-|-------2------2--|----2-----2--|------0-----0-|
D|-2------------|--3--------------|--0----------|--2-----------|
A|--------------|-----------------|-------------|--------------|
E|--------------|-----------------|-------------|--------------|

Am
Эта ночь говорит за нас
F
Под оркестр водосточных труб.
Dm
Мне твоих не хватает глаз,
E7
Мне твоих не хватает губ.

Am
Надоел полумрак казарм,
F
Очень трудно смириться с ним.
Dm
Мне б вернуться к глазам твоим,
E7
Мне б вернуться к губам твоим.

Припев:
 Am
 Напиши мне, что ночь темна,
 F
 Что устала ты слушать дождь.
 Dm
 Напиши мне, что ты одна,
 E7
 Напиши мне, что очень ждешь.
 
Проигрыш:
E|----------------|----------------|--------------|--------------|
B|-------0h1------|------0h1-------|-----0--------|--------------|
G|----2-------2---|---2--------2---|---2----2-----|------0-------|
D|-2--------------|-3--------------|-0------------|---2-----2--0-|
A|----------------|----------------|--------------|--------------|
E|----------------|----------------|--------------|--------------|

E|-0------------|--0--------------|-------------|--0-----------|
B|---------1----|-----------1-----|-------0-----|---------0----|
G|------2-----2-|-------2------2--|----2-----2--|------0-----0-|
D|-2------------|--3--------------|--0----------|--2-----------|
A|--------------|-----------------|-------------|--------------|
E|--------------|-----------------|-------------|--------------|

Комментарий автора:

0h1 - играется приемом hammer on (удар пальцем левой руки 
по ладу без участия правой, легато)
 
 

Видео