Военные, армейские песни - Марш "Прощание Славянки", аккорды

Прокрутка
Тональность
Шрифт
100
Вступление:
E|-----------------------
B|-9---------------------
G|---10-9-7----9---9-----
D|----------10---9---7---
A|-----------------------
E|-----------------------

Куплеты:
E|-------------------------------------------------------------------------------------------------------
B|--------------------------------------12-13-12-10--10-9-12-10----------10------------------------------
G|-9-10-9--------------------9-10-9-8-9-------------------------10----10----9--------9-10-9-----9--------
D|--------10-9-7---6-7-9-6-----------------------------------------12---------10-7----------6-9---10-9-7-
A|-------------------------7-----------------------------------------------------------------------------
E|-------------------------------------------------------------------------------------------------------

Припевы: (играются по два раза)
E|-------------------------------------------------------------------------
B|-------------------------------------------------------------------------
G|----------------------------------------7----7-9-10-9--------------------
D|---10---9-7-9---9-10-9-7---7----7-7-9-7---------------9-10-9-7-6-7-7-7-7-
A|-7------------7----------7-----------------------------------------------
E|-------------------------------------------------------------------------
 
 
Свернуть Распечатать

Видео