Вопли Видоплясова - Танцi, аккорды

Прокрутка
Тональность
Шрифт
100
Лягає день.
Вiн вiддае своi надiї ночi.

Програш:
A|---------------|
E|-0-3-0-3-0-0-0-|

Робiтники
Заморились працювати.

Програш:
A|-------------------|
E|-0-3-0-3-0-0-0-3-0-|

Там вогнi,
Яскраво блищуть лампи.

A|-----|
E|-3-0-|

Приходьте, люди, на вечiр у клуб,

             E G A
Там будуть танцi.
       A    E G A
Там, там танцi.
          A   E G A
Та-та-та, танцi.
   E G A
Танцi.

Ми вспомiнаем цiлий тиждень.

A|---------------|
E|-3-5-3-5-3-5-3-|

Багато є балачок та думок.

A|--------------------|
E|-0-3-33-55-33-55-33-|
(постукування по гітарі)

Ждемо, коли прийде добра недiля.
Танцзал запрошуе нас.

                    E G A
У клубi були любi танцi.
       A   E G A
Та-та-танцi.
                      A   E G A
Веселi, добрi, добрi танцi.
           E    G   A
Ла-ла-ла танцi, танцi.

Програш:
E|-0---3---5-|
B|-0---3---5-|
G|-1---4---6-| x4
D|-2---5---7-|
A|-2---5---7-|
E|-0---3---5-|

Приспів:
E|-0-----3---5-|
B|-0-----3---5-|
G|-1-----4---6-|
D|-2-----5---7-|
A|-2-----5---7-|
E|-0-----3---5-|

Та-та-та танцi, танцi, ла-ла-ла
Та-та-та танцi, танцi, ла-ла-ла.

A|---------|
E|-7-6-5-4-|

E|-0-----3---5-|
B|-0-----3---5-|
G|-1-----4---6-|
D|-2-----5---7-|
A|-2-----5---7-|
E|-0-----3---5-|

Та-та-та танцi, танцi, ла-ла-ла
Та-та-та танцi, танцi, ла-ла-ла.

(постукування по гитарі)

Програш:
D|-3-3-3-3-0-3-0-7-7-5-2-| x4

E|-------0------------3------------0---------|
B|-----0---0-------0---0-------2---2---------|
G|---1-------1---0-------0---2-------2-------|
D|-------------------------------------------|
A|----------------------------0--------------|
E|-0------------3--------------------------0-|

Оп, оп.
 
 
Свернуть Распечатать

Видео