Вопли Видоплясова - Країна мрій, аккорды

Прокрутка
Тональность
Шрифт
100
Am  Am/C    E7sus4    E7
Чув я чи то снилось мені
Am  Am/C E7sus4  E7
Що існує країна мрій
C             G          D
В тій країні росте чарівний гай

У гай той може кожний війти
Відчувати таємниці
Володіти секретом дивних чар

Хай несе мене ріка
В фантастичному човні
В небо несе наче у ві сні

Там є своєрідні ходи
Що сягають самих глибин
Там тварини небесної журби

Але я не питаю себе
Де на мапі країна ся
Та й негайно рушаю в дальню даль

Хай несе мене ріка
В фантастичному човні
В небо несе наче у ві сні

Табулатура как играть перебор:


||--------------------------|--------------------------|--------------------------|--------------------------||
||--------1-----------1-----|--------3-----------3-----|--------1-----------1-----|--------3-----------3-----||
||-----------2-----------2--|-----------2-----------1--|-----------2-----------2--|-----------2-----------1--||
||-----2-----------2--------|-----0-----------0--------|-----2-----------2--------|-----0-----------0--------||
||--0-----------3-----------|--2-----------------------|--0-----------3-----------|--2-----------------------||
||--------------------------|--------------0-----------|--------------------------|--------------0-----------||



||--------------------------|--------------------------|--------------3p-2--------|--------------3p-2--------||
||-----------1--------------|--------------3-----------|--------3-----------3-----|--------3-----------3-----||
||--------0--------0-----0--|--------0--------0-----0--|-----2-----2-----------2--|-----2-----2-----------2--||
||-----2--------------2-----|-----0-----0--------0-----|--0-----------------------|--0-----------------------||
||--3-----------------------|--------------------------|--------------------------|--------------------------||
||--------------------------|--3-----------------------|--------------------------|--------------------------||

Комментарий автора:

Каподастр на 3 ладу
 
 
Свернуть Распечатать

Видео