White Zombie - Electric Head Part 2, аккорды

Прокрутка
Тональность
Шрифт
100
          Electric Head pt.2 the Ecstacy
          By White Zombie 
          From Astro Creep 2000
          Tabbed By Mike Gagnon
          
          Standard Tuning
          
          Intro
          
          G---------------------------------
          D---------------------------------   x2
          A---------1-1-2-2---------1-1-0-0-
          E-1-1-4-4---------1-1-4-4---------
          
          G-----------------
          D-----------------
          A-7-7-6-6-5-5-4-4-  x2
          E-----------------
          
          Verse
          
          Play this until you feel like stopping
          
          G-------------------------------
          D-------------------------------
          A-------------------------------
          E-0-0-0-0-0-0-0-0-0-0-0-0-0-0-0-
          
          Chorus
          
          G-----------------------------
          D-----------------------------
          A-7-7-6-6-5-5-----------------
          E-------------0-0-0-0-0-0-0-0-
          
          Outro
          
          G---------------------------------
          D---------------------------------
          A---------------------------------
          E-1-1-1-1-4-4-4-4-3-3-3-3-2-2-2-2-
 
 
Свернуть Распечатать