Who - Baba O'Riley, аккорды

Прокрутка
Тональность
Шрифт
100
Intro played with distortion:
------------
-9-10-12-10-
------------
------------
------------
------------

VERSЕ & OUTRO:
-------------
-------------
---------4-2-
-2-------4-2-
-2-2-2-2-2-0-
-0-0-0-0-----

end verse with:
-----
-----
-2-r-
-2-r-
-0-r-
-----

Комментарий автора:

(r=let note ring)
 
 

Видео