Wyclef Jean - 911, аккорды

Прокрутка
Тональность
Шрифт
100
artist: Wyclef Jean
Title:  911
Tab by: kyle Murphy

  e:-9/12----10---------------------------------------
  a:---------------13---12---13---10---8--8-----8---10
  d:-----------------------------------------9--------
  g:--------------------------------------------------
  b:--------------------------------------------------
  e:--------------------------------------------------


  e:-9/12----10------------------10---10--------------
  a:---------------13---12---13-----------------------
  d:--------------------------------------------------
  g:--------------------------------------------------
  b:--------------------------------------------------
  e:--------------------------------------------------
 
 
Свернуть Распечатать