Wyclef Jean - 911, аккорды

Прокрутка
Тональность
Шрифт
100
-----------------------------------------------------------------------------
			     911 - Wyclef Jean
-----------------------------------------------------------------------------
Tabbed by:Heffy
Email:TheAmazingHeffy@yahoo.com

Tuning: Standard

e|--4/8--6--4--3--4----------------------------------------------------------
B|------------------6--4-----------------4-----------------------------------
G|------------------------------------5--------------------------------------
D|---------------------------------5-----------------------------------------
A|------------------------------3--------------------------------------------
E|1--------------------------------------------------------------------------

e|--4/8--6--4--3--4----------------------------------------------------------
B|--4/8--6--4--3--4-------6--4-----------4-/-----------8---------------------
G|------------------------5--3--------5----/--------8------------------------
D|1--------------------------------5-------/-----8---------------------------
A|------------------------------3----------/--6------------------------------
E|---------------------------------------------------------------------------

Thats pretty much it all the way through...
idk if the 2nd riff has two guitars or just one... so yeah... hope you like it