Zappa Frank - Willie The Pimp, аккорды

Прокрутка
Тональность
Шрифт
100
Intro/main riff:
 E/---------8-5------| 
 B/------------8-----| 
 G/----5-7-5----7-5--| 
 D/-7-7------------7-| 
 A/------------------| 
 E/------------------|  
 
Standin on the porch of the lido hotel Part: 
 E/------------------------------------------------------------------| 
 B/-5-5--5--5--5--5-5--5--5--5--5-5-5--5--5-5-5--5--5-5-5--5-5-5-5-5-| 
 G/-5-5--5--5--5--5-5--5--5--5--5-5-5--5--5-5-5--5--5-5-5--5-5-5-2-2-| 
 D/------------------------------------------------------------------| 
 A/------------------------------------------------------------------| 
 E/------------------------------------------------------------------| 
 
Solo:
 E/------------------------------------------------| 
 B/------------------------------------------------| 
 G/-7h8p7p5h7h8p7p5-5-5-7-7-7h8p7p5h7h8p7-7-5------| 
 D/----------------7-------------------------7p5---| 
 A/---------------------------------------------p7-| 
 E/------------------------------------------------| 
 
 E/----------------------------------5-| 
 B/---------------------------5---5-5--| 
 G/-7h8p7p5h7h8p7p5-5----------7b------| 
 D/----------------7-5-5-7-7-7---------| 
 A/------------------------------------| 
 E/------------------------------------| 
 
 E/---------------------------------------------------------------| 
 B/-12h15-12-15-12-12h15p12--12-12h15p12--15--15--12h15p12--15-12-| 
 G/------------------------14-----------14--14--14--------14------| 
 D/---------------------------------------------------------------| 
 A/---------------------------------------------------------------| 
 E/---------------------------------------------------------------| 
 
 E/----------------------------------------------------| 
 B/-15h17--15~-15h17---12h15p12-12h15p12--12h15--------| 
 G/------16-----------------------------14-----14p12---| 
 D/-------------------------------------------------14-| 
 A/----------------------------------------------------| 
 E/----------------------------------------------------| 
 
 E/------------------------------------| 
 B/---5-8-5--5-8-5--5-8-5--5-8-5-------| 
 G/-7b-----7b-----7b-----7b------7br-5-| 
 D/------------------------------------| 
 A/------------------------------------| 
 E/------------------------------------| 
 
 E/---------------------------------| 
 B/-5-8p5-5-------------------------| 
 G/------7-7p5----------------------| 
 D/-----------7p5-------------------| 
 A/--------------7p5-------------3--| 
 E/-----------------7p5-3-5-5-0-5-5-| 
 
 E|-----------------------------------------------| 
 B|----------/5---7-------12----------------------| 
 G|------------7-7-9--9-12--12-11-9-11------------| 
 D|--/7-7-7-7-------------------------11-12-12-14-| 
 A|-----------------------------------------------| 
 E|-----------------------------------------------| 
 
 E/------------------------------------------------| 
 B/-----12----------12-------------12---------12---| 
 G/---12--12------12--12------11-12--14-----12--12-| 
 D/-14----------14----------14------------14-------| 
 A/------------------------------------------------| 
 E/------------------------------------------------| 
 
 E/-----------------------------------------------------------| 
 B/-----12-------12-------------------------------------------| 
 G/---12--12---12--14-11h12⁄10h12⁄7h9-------------------------| 
 D/-14-------14----------------------12h14⁄11h12⁄10h12p10⁄7h9-| 
 A/-----------------------------------------------------------| 
 E/-----------------------------------------------------------| 
 
 E/-------------------------------------------------| 
 B/-------------------------------------------------| 
 G/-------------------------------------------------| 
 D/-5-5h7-7-7-7-5h7-5h7-5h7p5---5h7-7-7-7-7-6-5-----| 
 A/7-7-------------7---7-------7---------------7-6~-| 
 E/-------------------------------------------------| 
 
 E/---------------------------------------------------------| 
 B/----------------------------------------------5h8p5------| 
 G/----------------------------5--5--5--5--5h7--5-----7p5-5-| 
 D/----5-6-7-6-5-----5-6-7-6-5--7--7--7--7-----7---------7--| 
 A/-6-7---------7-6-7---------7-----------------------------| 
 E/---------------------------------------------------------| 
 
 E/----------------------------------------------------------------------| 
 B/-5-5-5-5-5-7-5--5-7-5-5-5-5-5-7-5--5-5-5-5-5-7-5--5-7-5--5-7-5--5-7-5-| 
 G/-5-5-5-5-5-7-5--5-7-5-5-5-5-5-7-5--5-5-5-5-5-7-5---------5-7-5--------| 
 D/---------------7------------------7--------------7------7------7------| 
 A/----------------------------------------------------------------------| 
 E/----------------------------------------------------------------------|
 
 

Видео