ЖЩ - Страна глухих, аккорды

Прокрутка
Тональность
Шрифт
100
E|------------------------|------------------------|
B|------------10----------|------------10----------|
G|------11----------11----|------11----------11----|
D|---11----11----11----11-|---11----11----11----11-|
A|-9----------------------|-8----------------------|
E|------------------------|------------------------|

E|-------------------------|------------------------|
B|-------------10----------|------------10----------|
G|-------11----------11----|------11----------11----|
D|----11----11----11----11-|---11----11----11----11-|
A|-------------------------|------------------------|
E|-10----------------------|-9----------------------|

E|------------------------|------------------------|
B|------------10----------|------------10----------|
G|------11----------11----|------11----------11----|
D|---11----11----11----11-|---11----11----11----11-|
A|------------------------|-8----------------------|
E|-7----------------------|------------------------|

E|------------------------|------------------------|
B|------------10----------|------------10----------|
G|------11----------11----|------11----------11----|
D|---11----11----11----11-|---11----11----11----11-|
A|------------------------|------------------------|
E|-7----------------------|-9----------------------|

Всё снова и снова, один за одним,
Последнее слово - умру молодым.
Придумать хоть что-то без рифмы стихи
Последним оплотом страна для глухих

Что 5 часов ночи, что 2 часа дня,
Спать хочется очень, но это фигня.
Открыв глаза шире, не спят никогда
Такие как ты, и такие как я.

Когда начнутся эти мутки, и я выкину кровать,
Буду есть один раз в сутки, вообще не буду спать.
Когда начнётся эта тема, начнётся опять,
На ваши проблемы мне наплевать.

На всём небосводе нет места для нас.
Мы завтра уходим – всегда, не сейчас.
Последним патроном – одну на троих.
Кто встанет над троном страны для глухих?

Тревожные ночи печальных солдат,
А тех, кто не хочет, исправит дизбат.
Изувеченных кружев - дубиной по лбу
Одной ногой в луже – второй в гробу.

Когда начнутся эти мутки, и я выкину кровать,
Буду есть один раз в сутки, вообще не буду спать.
Когда начнётся эта тема, начнётся опять,
На ваши проблемы мне наплевать.

Мы траурным маршем отправимся в путь,
Из окон нам машут – обратно не ждут.
На лестничной клетке толпа молодых
Смиренно ждёт смерти в стране для глухих.

Закончились деньги, зачем это всё?
Поставить их к стенке, и пусть их трясет,
Пусть просят пощады, кричат со всех сил,
А им и не надо, чтоб ты дальше жил.

Когда начнутся эти мутки, и я выкину кровать,
Буду есть один раз в сутки, вообще не буду спать.
Когда начнётся эта тема, начнётся опять,
На ваши проблемы мне наплевать.

Когда начнутся эти мутки, и я выкину кровать,
Буду есть один раз в сутки, вообще не буду спать.
Когда начнётся эта тема, начнётся опять,
На ваши проблемы мне наплевать.
 
 
Свернуть Распечатать

Видео