Зимовье Зверей - Мой голос, мой голубь, аккорды

Прокрутка
Тональность
Шрифт
100
e-5---1-0--------0-1--0-1-5--3--
B-------------------------------
G---------2----2----------------
e-5---1-0--------0-1--0-1-3-----
B-------------------------------
G---------2----2----------------]

Но что это? Какой-то новый голос
Законченную сказку догоняет,
Над королевством кружит, словно голубь,
И весь финал как будто бы меняет...

e-------------------------------------15-17--15--
B------------15-17--18-----18--17-18-------------
G-14--15-17------------17------------------------

e-17-----19--20--18--15-------15----------
B------------------------18-------18------
G-------------------------------------17--]

ГОЛОС
 F     A7   Dm
Голос нового финала,
 Dm/C  Bb   F  Bb  F
Среди строк и стай,
Где вовек не прорастало,
Пробуй, прорастай,
  F A7        Dm   C  F
Оглуши тех, кто устал от тишины,
    A7        Dm    C     F
Разбуди тех, кто уснул c виной в груди,
    A7       Dm C    F
Тонкорунным привидением весны
     A7      Dm C    F
Все заснувшее внутри разбереди.
 Am7        Dm   F
Мой голос, мой голубь,
Bb      G       F
Лети, мой голубь, мой голос!
   Am7   Dm     F
От неба до неба - вглубь,
  Bb    G       F
Лети, мой голубь, мой голос!
Голос взвешенной утраты,
Сквозь туман и тьму
По невидимому трапу
От меня к нему!
Догони того, кого ей не вернуть,
Объясни все то, чего не объяснить,
Укажи дорогу, брод, обратный путь,
Путеводную спасительную нить!
Мой голос, мой голубь,
Лети, голубь, мой голос!
От солнца до солнца - вглубь,
Лети, голубь, мой голос!
Голос истины напрасной,
Лебеда-ковыль,
Унеси меня из сказки,
Отвори мне быль!
Если даже неразменная волна,
Высыхая, превращается в глоток,
Как бы не был полон сказочный финал,
Только жизнь подводит истинный итог.
Мой голос, мой голубь,
Лети, голубь, мой голос!
От сердца до сердца - вглубь,
Лети, голубь, мой голос!
Лети, голубь, мой голос!