Зимовье Зверей - Начало цитаты, аккорды

Прокрутка
Тональность
Шрифт
100
 Em        Em       Emadd9   Emadd9
[e--3--3--3--2----2--0--------------------------------
B----------------------0-----------------------------
G---------------------------------------------------
D---------------------------------------------------
A----------------------------------------------------
E----------------------------------------------------

 Em        Am       Amadd9   Amadd9
e--3--3--3--2----2--0--------------------------------
B----------------------1-----------------------------
G----------------------------------------------------
D----------------------------------------------------
A----------------------------------------------------
E----------------------------------------------------

 Am        Am/C      Am/B    B7
e--5--5--5--3----3--2--------------------------------
B----------------------1-----------------------------
G----------------------------------------------------
D----------------------------------------------------
A----------------------------------------------------
E----------------------------------------------------

 Em        Em       Emadd9   Emadd9
e--3--3--3--2----2--0-------------------------------
B----------------------0----------------------------
G---------------------------------------------------
D---------------------------------------------------
A---------------------------------------------------
E---------------------------------------------------

 Em       B7      Em     B7
e-----------------------------------------
B--4h5----5--4--5--7----7h8---8--7--8--10-
G-----------------------------------------
D-----------------------------------------
A-----------------------------------------
E-----------------------------------------

 Am       Am/C     Am/B    B7
e-----------------------------------------
B-10--12--10--8--8--7--10-10--8--7--5--7--
G-----------------------------------------
D-----------------------------------------
A-----------------------------------------
E-----------------------------------------

 Em       B7      Em     B7
e-----------------------------------------
B--0h5----5--4--5--7----5h8---8--7--8--10-
G-----------------------------------------
D-----------------------------------------
A-----------------------------------------
E-----------------------------------------

 Am       Am/C     Am/B    B7
e---------------------------------------------
B-10--12-12--10--8--8--7-7-10-10--8--7--5--7--
G---------------------------------------------
D---------------------------------------------
A---------------------------------------------
E---------------------------------------------]

Все это повторяется два раза. И заканчивается следующим.

 {} Em
e-15-15-15-14--14-12-----0^-
B-------------------12---0-
G------------------------0-
D------------------------2-
A------------------------2-
E------------------------0-

Комментарий автора:

Там, где в начале идут пустые такты при втором повторе 
можно играть некую имповизацию. (Так оно в оригинале и делается, 
просто снимать - влом).
 
 

Видео