Зимовье Зверей - Медвежий блюз, аккорды

Прокрутка
Тональность
Шрифт
100
Intro:    
 Dm Dm/F  B      A7
4|-------------3-----
5|-5--4-3-2-1----1-0- x2

Dm          Dm/F        B            A7
Жизнь обернулась лунной стороной медали,
Dm          Dm/F        B          A7
Зима вернулась разогнав весну и лето,
Dm          Dm/F        B  A7
Уплыли музы в северные дали,
Dm          Dm/F        B            A7
Оставив блюзы на плохих магнитных лентах.

4|-0-2-3--5-6-5-3-
И я читаю только про медведей,      

4|-0-2-3---------
5|--------3--3-4-
Прикалываю бабочек к обоям,          
                    
4|-0-2-3--5-6-5-3-                       
Бью по гитаре, попадаю по соседям, 

3|--------5--5-6--
4|-0-2-3----------
И прозябаю здесь изнеженным изгоем. 
                                           
1|-5----5--7-5--1---
2|-6-3--6--8-6--2---
Я сбился с холода, меня прожгли метели, 
                    
1|-5----5--7-5--1---
2|-6-3--6--8-6--2---                          
Втоптали в снег, как в ватные тиски,    

1|-5----5--7-5--1---
2|-6-3--6--8-6--2---
Я сбился с голода и день отканетелив

1|-5----5--7-5--1---
2|-6-3--6--8-6--2---
Гляжу на лампочку и таю от тоски.      

Solo:
2|-9-8-6-|-8-6-----9-8-6----6----------
3|-------|-----7-5-------7----7--------
4|-------|----------------------7------ x N раз

Dm          Dm/F        B   A7
Седые скифы в главном угадали,
Dm          Dm/F        B    A7
Их злые мифы обратились в были,
Dm          Dm/F       B A7
Уплыли музы в северные дали,
Dm          Dm/F        B  A7
Покинув вузы, серые от пыли.

4|-0-2-3--5-6-5-3-
И я под ногти загоняю струны,

4|-0-2-3---------
5|--------3--3-4-
Я острием вожу по острию,

4|-0-2-3--5-6-5-3-
о даже буквы превратились в руны,

3|--------5--5-6--
4|-0-2-3----------
Мне врут, а я ни бэ ни мэ не узнаю.

1|-5----5--7-5--1---
2|-6-3--6--8-6--2---
Моя мечта уйти в леса с волкам,

1|-5----5--7-5--1---
2|-6-3--6--8-6--2---
Избегнуть снов, как крысы корабля,

1|-5----5--7-5--1---
2|-6-3--6--8-6--2---
о мой удел под кучевыми потолками,

1|-5----5--7-5--1---
2|-6-3--6--8-6--2---
Где в каждой кухне вместо лампочки - петля.

Solo 2

Dm          Dm/F        B            A7
Опять маячит кто-то над гнездом кукушки,
Dm          Dm/F        B          A7
Не прячет глаз и манит чистыми руками,
Dm          Dm/F        B        A7
И я попался, я опять у муз на мушке,
Dm          Dm/F        B         A7
Моя коса нашла на их точильный камень.

4|-0-2-3--5-6-5-3-
И я латаю ладаном набойки,

4|-0-2-3---------
5|--------3--3-4-
Я зашиваю латы рыбьими костями,

4|-0-2-3--5-6-5-3-
Мне надоело жить от пайки и до койки,

3|--------5--5-6--
4|-0-2-3----------
Я так устал бродить и бредить новостями.

1|-5----5--7-5--1---
2|-6-3--6--8-6--2---  
Боль в помощь нам, колени бьются частью,

1|-5----5--7-5--1---
2|-6-3--6--8-6--2---  
Мне звездный ковш плеснет дождем в лицо,

1|-5----5--7-5--1---
2|-6-3--6--8-6--2---  
И я примерю на холодное запястье

1|-5----5--7-5--1---
2|-6-3--6--8-6--2---  
Свободы космоса сатурново кольцо.

Outro = Solo:
Solo:
2|-9-8-6-|-8-6-----9-8-6----6----------
3|-------|-----7-5-------7----7--------
4|-------|----------------------7------ x N раз

Комментарий автора:

Solo 2: импровизируйте на блюзовой гамме от ре. 

Здесь Dm/F = 100231. Можно иногда играть просто F
 
 

Видео