Зимовье Зверей - Конец цитаты, аккорды

Прокрутка
Тональность
Шрифт
100
Перебор на всю песню:
   Em                Em/9        Em *
e|-------0---0---|-----------0-|-----0---0---|
B|-----0---0---0-|---------0---|---0---0---0-|
G|---0-----------|-------0-----|-0-----------|
D|-2-------------|-----4-------|-2-----------|
A|---------------|---2---------|-------------|
E|---------------|-0-----------|-------------|

      Am           Am/9        B7
e|-------0---0-|-----------0-|-------2---2---|
B|-----1---1---|---------1---|-----0---0---0-|
G|---2---------|-------4-----|---2-----------|
D|-2-----------|-----2-------|-1-------------|
A|-------------|---0---------|---------------|
E|-------------|-------------|---------------|

Em                Em Em/9 Em *
Голос срывался c петель
Em              Am Am/9 Em  
В дальние дали летел
Am                 Em Em B7
Пробовал выйти  на крик
Em                Am Em/9 Em *
Но застревал в пустоте

Em                Em Em/9 Em *
В космосе было темно
Em              Am Am/9 Em  
В комнате стыло окно
Am                 Em Em B7
Голос стучался в него
Em             Em Em/9 Em *
Напоминал об одном

Em             B7
Верните каждому свое
Am             B7
Отдайте каждому свое
Am           Am
Пусть все идут своим путем
Am        B7
Приобретя утраты

Em             B7
Отдайте каждому свое
Am             B7
Верните каждому свое
Am           Am
И как-нибудь переживем
Am         B7
Конец цитаты

Между припевами идет проигрыш:
Рифф 1:                      Рифф 2:                    Рифф 3:
e|-3-3-3-2-2-0---| Em/9 Em * e|-3-3-3-2-2-0---| Am/9 Am e|-5-5-5-3-3-2---|
B|-------------0-|           B|-------------1-|         B|-------------1-|

Em B7 Рифф 1 Em/9 Em *
             
Он играется не так как в оригинале, но при наличии двух гитар 
можно сыграть параллельно:
1: Em Em/9 Em *
2: Рифф 1  
1: Em Am Am/9  
2: Рифф 2
1: Am Em Em B7
2: Рифф 3 
1: Em Em/9 Em *
2: Рифф 1

Outro:
e|-15-15-15-14-14-12------|  Em (провести полностью по струнам сверху вниз,
B|-------------------12---|      задержавшись на первой струне)
 
 

Видео