Запрещают песни Цоя, Агата Кристи, Наутилус Помпилиус, Зиверт
Отвечаем в отдельной теме

Zombie Rob - Feel So Numb, аккорды

Прокрутка
Тональность
Шрифт
100
ROB ZOMBIE: FEEL SO NUMB  BY MARCIO CASTRO.

INTRO:

GTR1:
D|-----------------------------------------|
A|-----------------------------------------|
F|-----------------------------------------|
C|-00-12-10-12-10-12-----88-12-8--77-10-12-| X2
G|-00-12-10-12-10-12-X3--88-12-8--77-10-12-|
C|-00-12-10-12-10-12-----88-12-8--77-10-12-|

GTR2: IN THE X2 OF GTR1.
D|-10-------10----10/11-|
A|----------------------|
F|----------------------|
C|----12-12----12-------| X4
G|----------------------|
C|----------------------|

VERSE:
D|-----|
A|-----|
F|-----|
C|-0-0-| X3
G|-0-0-|
C|-0-0-|

CHORUS:
GTR1:
D|-----------------------------------------|
A|-----------------------------------------|
F|-----------------------------------------|
C|-00-12-10-12-10-12-----88-12-8--77-10-12-| X2
G|-00-12-10-12-10-12-X3--88-12-8--77-10-12-|
C|-00-12-10-12-10-12-----88-12-8--77-10-12-|

GTR2:*
D|/17-15--17-15-17-|
A|-----------------|
F|-----------------|
C|-----------------| X2
G|-----------------|
C|-----------------|

VERSE:
D|-----|
A|-----|
F|-----|
C|-0-0-| X3
G|-0-0-|
C|-0-0-|

CHORUS.

SOLO:
D|-10-------10----10/11-|---------------|
A|----------------------|---------------|
F|----------------------|-/13-12-10-----|
C|----12-12----12-------|-----------12~-| X2
G|----------------------|---------------|
C|----------------------|---------------|
           X3


VERSE.

CHORUS. X2