Zombie Rob - Never Gonna Stop, аккорды

Прокрутка
Тональность
Шрифт
100
Never Gonna Stop Guitar Tabs.
Written and Performed by Rob Zombie.
Tabs Written and performed by Lead Guitar Player Riggs.

This is the real way to play never gonna stop. (NOTE) You should do a Drop c# tuning on 
strings before playing any zombie song.


Intro.
E|----------------------------------------------------------------|
B|----------------------------------------------------------------|
G|----------------0--0--7--0--0--9--0--0--5--0--0--5--0--0--5--7--|
D|----------------------------------------------------------------|
A|----------------------------------------------------------------|
E|----------------------------------------------------------------|


E|--------------------------------------------------------------|
B|--------------------------------------------------------------|
G|--------------0--0--7--0--0--9--0--0--5--0--0--5--0--0--5--4--|
D|--------------------------------------------------------------|
A|--------------------------------------------------------------|
E|--------------------------------------------------------------|


E|-------------------------------------------------------------|
B|-------------0--0--7--0--0--9--0--0--5--0--0--5--0--0--5--7--|
G|-------------------------------------------------------------|
D|-------------------------------------------------------------|
A|-------------------------------------------------------------|
E|-------------------------------------------------------------|


E|------------------------------------------------------------|
B|------------0--0--7--0--0--9--0--0--5--0--0--5--0--0--5--4--|
G|------------------------------------------------------------|
D|------------------------------------------------------------|
A|------------------------------------------------------------|
E|------------------------------------------------------------|


Chorus. (never gonna stop me)
E|---------------------------------------------------------------------------------|
B|---------------------------------------------------------------------------------|
G|---------------------------------------------------------------------------------|
D|---------------------------------------------------------------------------------|
A|---------------------------------------------------------------------------------|
E|-----------4--5--4--5--4--5~--4--5--4--5--4/--4--5--4--5--4--5~--4--5--4--5--4--|

E|--------------------------------------------|
B|--------------------------------------------|
G|--------------------------------------------|
D|--------------------------------------------|
A|--------------------------------------------|
E|----------4--5--4--5--4--5~--4--5--4--5--4--|


Then at the part where he says (scream if u want it) - (cause i want more)
E|---------------------------------|
B|---------5--5--4--5--5--4--5--5--|
G|---------------------------------|
D|---------------------------------|
A|---------------------------------|
E|---------------------------------|

I haven't figured out the the soft notes during the regular lyrics but atleast i have 
of it together. Thanks for you time and enjoy!

Any Questions email me stoney at stoney_80_2000@yahoo.com
 
 
Свернуть Распечатать